rock
 
|tablatures   |lyrics   |discussion forums   |more tabs @ XGuitar.com

Kiss tabs

Flaming Youth bass tab

G:----------|----------|----------|----------|
D:4/6-------|----------|4/6-------|----------|
A:----------|----------|----------|----------|
E:------4--4|4--4--4--4|------4--4|4--4--4--4|

G:----------|----------|
D:4 /6--6--6|------6--6|
A:----------|6/ -------|
E:----------|----------|

G:----------|----------|----------|----------|
D:----------|----------|---4---4/6|----------|
A:4--4--4--4|4--4--4--4|----------|----------|
E:----------|----------|4----4----|----------|

G:----------|----------|----------|1---------|
D:----------|----------|----------|----------|
A:4--4--4--4|4--4--4--4|-------2-3|-----2-4--|
E:----------|----------|4--2-4----|---------2|

G:----------|1~--------|----------|----------|
D:----------|----------|----------|----------|
A:-------2-3|----------|----------|----------|
E:4--2-4----|----------|----------|----------|

G:----------|----------|----------|----------|
D:4/6-------|----------|4/6-------|----------|
A:----------|----------|----------|----------|
E:------4--4|4--4--4--4|------4--4|4--4--4--4|

G:----------|----------|
D:4 /6--6--6|------6--6|
A:----------|6/ -------|
E:----------|----------|

G:----------|----------|----------|----------|
D:----------|----------|---4---4/6|----------|  x2
A:4--4--4--4|4--4--4--4|----------|----------|
E:----------|----------|4----4----|----------|

G:----------|1---------|----------|1---------|
D:----------|----------|----------|----------|  x3
A:-------2-3|------2---|-------2-3|------2---|
E:4--2-4----|---------2|4--2-4----|---------2|

G:----------|1---------|----------|1~--------|
D:----------|----------|----------|----------| (repeat until song
A:-------2-3|-----2-4--|-------2-3|----------|    fades out)
E:4--2-4----|---------2|4--2-4----|----------|
  development and support by
dmitry ivanov