rock
 
|tablatures   |lyrics   |discussion forums   |more tabs @ XGuitar.com

Kiss tabs

Fits Like A Glove bass tab

FITS LIKE A GLOVE (from the KISS CD "LICK IT UP")
--------------------

Transcribed by Emil Ortenmark, emil@kissasylum.com

Standard tuning

Comments: Just three things to say about this song. One, look out for the
tempo, this is really break-neck speed (around 170-175 bpm). Two, make
sure not to overbend the half-step bends in Rhy. Fig 3. Three, damp
properly when playing the B?s in Rhy. Figs 4a and 4b.


Key:
/    = slide up
\    = slide down
b    = bend (whole step)
b^   = bend (1/2 step)
b^^  = bend (1 1/2 steps)
pb   = pre-bend
r    = release-bend
t    = tap with righthand finger
h    = hammer-on
p    = pull-off
~    = Vibrato
*    = Natural Harmonic
#(#) = Trill
**   = Artificial Harmonic
x    = Dead notes (no pitch)
P.M. = Palm mute (- -> underneath indicates which notes)
(\)  = Dive w\bar
(/)  = Release w\bar
Tp   = Tap w\plectrum



Rhythm Fig. 1a

G|-----------------------------------------------------|
D|-----------------------------------------------------|
A|--------0--0--0--0--0--0--------0--0--0--0-----------|
E|--3b^---------------------3b^---------------0--0-----|


G|-----------------------------------------------------|
D|-----------------------------------------------------|
A|---------0--0--0--0--0--0--0--3\-2-----0----0--0-----|
E|--3b^-------------------------------3----------------|


Rhythm Fig. 1b

G|-----------------------------------------------------|
D|-----------------------------------------------------|
A|-----0--0--0--0--0--0---------0--0--0--0-------------|
E|--3b^------------------3b^----------------0--0-------|


G|-----------------------------------------------------|
D|-----------------------------------------------------|
A|-----0--0--0--0--------------------------------------|
E|--3b^------------------------------0--0--------------|



Rhythm Fig. 1c

G|-----------------------------------------------------|
D|-----------------------------------------------------|
A|-----0--0--0--0--0--0---------0--0--0--0-------------|
E|--3b^------------------3b^----------------0--0-------|


G|-----------------------------------------------------|
D|-----------------------------------------------------|
A|-----0--0--0--0--------------------------------------|
E|--3b^------------------------------------------------|



Rhythm Fig. 2a

G|-----------------------------------------------------|
D|--5-----------------------5--------------------------|
A|-------5--5--5--5--5-----------5--5--5--5--5---------|

E|-----------------------------------------------------|



G|-----------------------------------------------------|
D|--5-------5-------------5----------------------------|
A|-------5---------5-----------5--5--5--5--5-----------|
E|-----------------------------------------------------|



G|-----------------------------------------------------|
D|--5-----------------------5--------------------------|
A|-------5--5--5--5--5-----------5--5--5--5--5---------|
E|-----------------------------------------------------|



G|-----------------------------------------------------|
D|--5-------5------------------------------------------|
A|-------5---------0--5--------------------------------|
E|-----------------------------------------------------|




Rhythm Fig. 2b

G|-----------------------------------------------------|
D|-----------------------------------------------------|
A|-------5--5--5--5--5-----------5--5--5--5--5---------|
E|--3-----------------------3--------------------------|



G|-----------------------------------------------------|
D|-----------------------------------------------------|
A|-------5---------5-----------5--5--5--5--5-----------|
E|--3-------3-------------3----------------------------|



G|-----------------------------------------------------|
D|-----------------------------------------------------|
A|-------5--5--5--5--5-----------5--5--5--5--5---------|
E|--3-----------------------3--------------------------|



G|-----------------------------------------------------|
D|-----------------------------------------------------|
A|-------5------------5--------------------------------|
E|--3-------3------3-----------------------------------|



Rhythm Fig. 3

G|-----------------------------------------------------|
D|-----------------------------------------------------|
A|--7b^--------------------7b^-------------------------|
E|---------0--0--0--0--0----------0--0--0--0--0--------|



G|-----------------------------------------------------|
D|-----------------------------------------------------|
A|--7b^-----7b^-------7b^------------------------------|
E|-------0---------0-----------0--0--0--0--0-----------|



Rhythm Fig. 4a

G|-----------------------------------------------------|
D|--9---------------------9----------------------------|
A|-----------------------------------------------------|
E|--------0--0--0--0--0---------0--0--0--0--0----------|



G|-----------------------------------------------------|
D|--9-------9------------------------------------------|
A|--------------------5--------------------------------|
E|-------0---------0-----------------------------------|


Rhythm Fig. 4b

G|-----------------------------------------------------|
D|--9---------------------9----------------------------|
A|-----------------------------------------------------|
E|--------0--0--0--0--0---------0--0--0--0--0----------|



G|-----------------------------------------------------|
D|--9-------9---------9--------------------------------|
A|-----------------------------------------------------|
E|-------0---------0---------0--0--0--0--0-------------|



Rhythm Fig. 5

G|-----------------------------------------------------|
D|-------------2---------------------------------------|
A|-----------------------------------7--7------7-------|
E|----0--3--4-----3--2--0------------------------------|
                                  <-2x->   <-2x->


Rhythm Fig. 6

G|-----------------------------------------------------|
D|-------------2---------------------------------------|
A|-----------------------------------------------------|
E|----0--3--4-----3--2--0------------------5--5\-------|
  development and support by
dmitry ivanov