rock
 
|tablatures   |lyrics   |discussion forums   |more tabs @ XGuitar.com

Kiss tabs

Fanfare guitar tab

Fanfare by KISS
From the album The Elder
--------------------------------------------------------------------



  Don't ask me why I transcribed this but it sounds cool for guitar


e:------------------6----------------------------------8---------------------|
B:--6----6----6------------6~----------8----8----8-----------8~-------9------|
G:------------------3----------------------------------5---------------------|
D:--3----3----3------------3~----------5----5----5-----------5~-------6------|
A:---------------------------------------------------------------------------|
E:---------------------------------------------------------------------------|
   finger pick




e:-----------------11-----16~-----15-----13-----11----10-----11----11-----11-|
B:11---11---11---------------------------------------------------------------|
G:-----------------8------13~-----12-----10-----8-----7------8-----8------8--|
D:8----8----8----------------------------------------------------------------|
A:---------------------------------------------------------------------------|
E:---------------------------------------------------------------------------|





e:----10--------------------------------------------9~------14~-----13~----13|
B:------------------------------------------9~-------------------------------|
G:----7------5~~------------------8~----------------6~------11~-----10~----10|
D:----------------------3~------------------6~-------------------------------|
A:-----------3~~------------------6~-----------------------------------------|
E:----------------------1~---------------------------------------------------|


          
          
          
e:~----13~|
B:--------|
G:~----10~|
D:--------|
A:--------|
E:--------|



  development and support by
dmitry ivanov