rock
 
|tablatures   |lyrics   |discussion forums   |more tabs @ XGuitar.com

Kiss tabs

Do You Love Me? guitar tab

Do You Love Me by KISS
From the album Destroyer
--------------------------------------------------------------------



   "And goin' to all of the shows, but..."
e:---------------------------------------------------------------------------|
B:---------------------------------------------------------------------------|
G:-------------------------------------------9---------9--------9--7~----9---|
D:-------------------------------------------7--9~-----7--9~----7--7~----7--9|
A:-------------------------------------------0--7~-----0--7~----0--5~----0--7|
E:----------------------------------------------0~--------0~----------------0|
                                              chorus



      "You like the.."
e:-------------------------------------------------------------|
B:-------------------------------------------------------------|
G:-------------4---2-4-2-4--4----2----4--2-4----2--2-4-2-4-2---|
D:~--------4---4---2-4-2-4--4----2-4--4--2-4----2--2-4-2-4-2---|
A:~-----4--2---2---2-2-2-2--2----2-2--2--2-2----0--0-----------|
E:~-----2------------------------------------------------------|
       verse 1



    variation
e:---------------------------------------------------|
B:-----4--4---6/4/6/4---2-4--4----6/4----------------|
G:---2-4--4---5/4/5/4---2-4--4----5/4--2-2--4-2-4-2--|
D:---2-4--4---7/4/7/4---2-4--4----7/4--2-2--4-2-4-2--|
A:---0---------------------------------0-0--0-0-0-0--|
E:---------------------------------------------------|
   verse 2




e:--------------------------------------------------------------------------|
B:--------------------------------------------------------------------------|
G:---8~-6~-4~-6~-8~-6~--8~-6~-4~-6~-8~-9~---10~-8~-6~-8~-10~-8~-10~-8~-3-3--|
D:---------------------------------------------------------------------3-3--|
A:---------------------------------------------------------------------1-1--|
E:--------------------------------------------------------------------------|


                                                       

   Bells in outtro
e:-----------------------------------------------------|
B:--17--16--14--12----17--16--14--12-----15--14--12--10|
G:-----------------------------------------------------|
D:--17--17--14--13----17--17--14--13-----15--15--12--11|
A:-----------------------------------------------------|
E:-----------------------------------------------------|



  development and support by
dmitry ivanov