rock
 
|tablatures   |lyrics   |discussion forums   |more tabs @ XGuitar.com

Kiss tabs

Dirty Living guitar tab

Dirty Livin' by KISS
From the album Dynasty
--------------------------------------------------------------------



  intro
e:---------------------------------------------------------------------------|
B:--------11~-------8-11-----8-11--------10--8--10-----------------------8-11|
G:---------------10-------10-------------10--8--10--------------------10-----|
D:---------------------------------10~---10--8--10---------------------------|
A:----------------------------------------------------3-3-3-3-3-3-3-3--------|
E:---------------------------------------------------------------------------|




                                                          "I can hear..."
e:---------------------------------------------------------------------------|
B:~------8-11-----8-11------10--8--10-----------------------------10--8--10--|
G:----10-------10-----------10--8--10-----------------------------10--8--10--|
D:---------------------10---10--8--10-----------------------------10--8--10--|
A:--------------------------------------3-3-3-3-3-3-3-3----------------------|
E:---------------------------------------------------------------------------|





e:---------------------------------------------------------------------------|
B:------------------10--8--10---------------------10--8--10------------------|
G:------------------10--8--10---------------------10--8--10------------------|
D:------------------10--8--10---------------------10--8--10------------------|
A:-3-3-3-3-3-3-3-3--------------3-3-3-3-3-3-3-3---------------3-3-3-3-3-3-3-3|
E:---------------------------------------------------------------------------|




                  "Out on the streets dirty livin.."
e:---------------------------------------------------------------------------|
B:--10--8--10-----------------3~------------------------10--8--10------------|
G:--10--8--10--------5--3--5--3~---5--3-----------------10--8--10------------|
D:--10--8--10--------5--3--5-------5--3---3~------------10--8--10------------|
A:----------------------------------------3~------------------------3-3-3-3-3|
E:----------------------------------------1~---------------------------------|


                                                       

                                        to 2nd verse
e:----------------------------------------------------|
B:-----------------------10--8--10--------------------|
G:-----------------------10--8--10--------------------|
D:---------6~-----8~-----10--8--10--------------------|
A:-3-3-3---6~-----8~-----------------3-3-3-3-3-3-3-3--|
E:---------4~-----6~----------------------------------|




                                          sorry, for the rest-you're on your
e:---------------------------------------------------------------------------|
B:-----------------------------------------8--8---11~------------------------|
G:--10--10---10b~~--10/8--10--10b--10b~~-------------------------------------|
D:----------------------10---------------------------------------------------|
A:---------------------------------------------------------------------------|
E:---------------------------------------------------------------------------|


     
     
  own
e:---|
B:---|
G:---|
D:---|
A:---|
E:---|


  development and support by
dmitry ivanov