rock
 
|tablatures   |lyrics   |discussion forums   |more tabs @ XGuitar.com

Kiss tabs

Dirty Livin' bass tab

DIRTY LIVINĄ (from the KISS CD "DYNASTY")
--------------------

Transcribed by Emil Ortenmark, emil@kissasylum.com

Tuned down 1/2-step

Comments: This is another full transcription. ThereĄs a lot of repetition
here but itĄs erratic so I chose this way of notating as the least bother-
some. Look out for the monster position shifts that occur throughout the
song. Some notes have been put in parenthesis. These are mistakes, notes
that are muffled and donĄt ring out properly. IĄve tried to make the tab
a little easier to follow by including parts of the lyrics underneath the
staff so that you can find your way.

Key:
/    = slide up
\    = slide down
b    = bend (whole step)
b^   = bend (1/2 step)
b^^  = bend (1 1/2 steps)
pb   = pre-bend
r    = release-bend
t    = tap with righthand finger
h    = hammer-on
p    = pull-off
~    = Vibrato
*    = Natural Harmonic
#(#) = Trill
**   = Artificial Harmonic
x    = Dead notes (no pitch)
P.M. = Palm mute (- -> underneath indicates which notes)
(\)  = Dive w\bar
(/)  = Release w\bar
Tp   = Tap w\plectrum


Gb|------------------------|-----------------------|--------------3h-4-----|
Db|------------------------|-----------------------|-----------------------|
Ab|--4----4----4-----2-----|-4----4----4-----2-----|-4----4----4--------2--|
Eb|---------------2-----4--|--------------2-----4--|-----------------------|



Gb|------------------------|-----------------------|-----------------------|
Db|------------------------|-----------------------|-----------------------|
Ab|--4----4----4-----2-----|-4----4----4-----2-----|-4----4----4-----2-----|
Eb|---------------2-----4--|--------------2-----4--|--------------2-----4--|



Gb|----------3h-4----------|---------3h-4----------|--------------2--------|
Db|------------------------|-----------------------|-----------------2-----|
Ab|--4----4-----------2----|-4----4-----------2----|-0----0----0--------0--|
Eb|----------------2-----4-|---------------2-----4-|-----------------------|



Gb|--------------------|---------12h-13\---------|---------12h-13\---------|
Db|--------------------|-------------------------|-------------------------|
Ab|-2---2---2--------2-|-4----4-------------2----|-4----4-------------2----|
Eb|------------2h-4----|-----------------2-----4-|-----------------2-----4-|



Gb|-----------------------|-----------------------|------------------------|
Db|-----------------------|------------2h4---2----|------------------------|
Ab|--4----4----4-----2----|--2----2---------------|--0----0----0--0--2--3--|
Eb|---------------2-----4-|-----------------------|------------------------|
    I canĄt get enough of...


Gb|-----------------------|------------------------|-----------------------|
Db|------------2h4---2----|------------------------|------------2h4---2----|
Ab|--4----4---------------|--4----4----4-----2-----|--2----2---------------|
Eb|-----------------------|---------------2-----4--|-----------------------|



Gb|-----------------------|-------------------------|----------------------|
Db|---------------4\-2----|-------------------------|----------------------|
Ab|--0----0----0--------4-|-------------------------|----------------------|
Eb|-----------------------|-4--4--4--4--4--4--4--4--|-2----2----2----2--0--|
                                            Dirty    livinĄ...


Gb|-----------------------|-----------------------|------------------------|
Db|-------------2h4---2---|-----------------------|---------------2\-1-----|
Ab|-----------------------|--4----4----4-----2----|--4----4----4--------2--|
Eb|--2----2--0------------|---------------2-----4-|------------------------|
                                                                    I canĄt


Gb|---------------2-------|-----------------------|----------3h-4----------|
Db|------------------2----|-----------------------|------------------------|
Ab|--0----0----0--------0-|-2----2----2--------2--|--4----4-----------2----|
Eb|-----------------------|--------------2h-4-----|----------------2-----4-|
   wait any longer...


Gb|----------3h-4-----------|------------------------|---------------------|
Db|-------------------------|------------------------|------------2h4---2--|
Ab|--4----4-----------2-----|--4----4----4-----2-----|--2----2-------------|
Eb|----------------2-----4--|---------------2-----4--|---------------------|
                              FlashinĄ lights keep running...


Gb|---------------2-------|----------3h-4-----------|----------------------|
Db|------------------2----|-------------------------|----------------------|
Ab|--0----0----0--------0-|--4----4-----------2-----|-4----4----4-----2----|
Eb|-----------------------|----------------2-----4--|--------------2-----4-|



Gb|----------------------|-----------------------|-------------------------|
Db|------------2h4---2---|--------------4\-2-----|-------------------------|
Ab|--2----2--------------|-0----0----0--------4--|-------------------------|
Eb|----------------------|-----------------------|-4--4--4--4--4--4--4/--\-|
                                                                    Dirty


Gb|----------------------|-----------------------|----------8h-9\----------|
Db|----------------------|-------------2h4---2---|-------------------------|
Ab|----------------------|-----------------------|--4----4-----------2-----|
Eb|--2----2----2----2--0-|--2----2--0------------|----------------2-----4--|
    livinĄ...


Gb|-----------(9)---------|---------------2--------|-----------------------|
Db|-----------------------|------------------2-----|-----------------------|
Ab|--4----4----------2----|------------0--------0--|-2----2----2-----2--3--|
Eb|---------------2-----4-|-/5---/5----------------|--------------4--------|
                  I canĄt  wait any longer...


Gb|--------12h-13\---------|--------12h-13\---------|----------------------|
Db|------------------------|------------------------|-----------------2----|
Ab|-4/----------------2----|-4/----------------2----|-0----0----0--4-----0-|
Eb|----------------2-----4-|----------------2-----4-|----------------------|
                                            I canĄt  wait any longer...


Gb|------------------------|------------------------|-------------6--8--9--|
Db|------------------------|---------------2\-1-----|----------------------|
Ab|--2----2----2--------2--|--4----4----4--------2--|-4----4---------------|
Eb|---------------2h-4-----|------------------------|----------------------|



Gb|------------11--9----|--8----------9--8----|----------------------------|
Db|---------------------|---------------------|----------------------------|
Ab|---------------------|---------------------|--0----0-----0----0---------|
Eb|---------------------|---------------------|----------4----------4------|



Gb|----------------6--8--9--|------------11--9----|--8----------9--8-------|
Db|-------------------------|---------------------|------------------------|
Ab|--0----0-----0-----------|---------------------|------------------------|
Eb|----------4--------------|---------------------|------------------------|



Gb|----------------------|--------------------------|----------------------|
Db|----------------------|--------------------------|----------------------|
Ab|--0----0-----0----0---|--------------------------|-4----4----4-----2----|
Eb|----------4-----------|--4--4--4--4--4--5p-4--0--|--------------2-----4-|
                      I  gotta get away              (Solo)





Gb|----------------------|--------12h-13\---------|--------12h-13\---------|
Db|----------------------|------------------------|------------------------|
Ab|-4----4----4-----2----|-4---4-------------2----|-4---4-------------2----|
Eb|--------------2-----4-|----------------2-----4-|----------------2-----4-|



Gb|----------------------|-----------------------|---------15h-16\---------|
Db|----------------------|-----------------------|-------------------------|
Ab|-4----4----4-----2----|-4----4----4-----2-----|-4----4-------------2----|
Eb|--------------2-----4-|--------------2-----4--|-----------------2-----4-|



Gb|--------15h-16\---------|---------------2-------|-----------------------|
Db|------------------------|------------------2----|-----------------------|
Ab|-4/----------------2----|--0----0----0--------0-|--2----2----2--------2-|
Eb|----------------2-----4-|-----------------------|---------------2h-4----|
                            Dorty livinĄ            dirty livinĄ


Gb|-----------------------|----------3h-4----------|---------------2-------|
Db|-----------------------|------------------------|------------------2----|
Ab|--4----4----4-----2----|--4----4-----------2----|--0----0----0--------0-|
Eb|---------------2-----4-|----------------2-----4-|-----------------------|



Gb|-----------------------|----------8h-9\---------|---------8h-9\---------|
Db|-----------------------|------------------------|-----------------------|
Ab|--2----2----2--------2-|--4----4-----------2----|-4----4-----------2----|
Eb|---------------2h-4----|----------------2-----4-|---------------2-----4-|



Gb|------------------------|-----------------------|-----------------------|
Db|------------------------|------------2h4---2----|-----------------------|
Ab|--4----4----4-----2-----|--2----2---------------|--0----0----0-----0--2-|
Eb|---------------2-----4--|-----------------------|---------------2-------|
   Mainline out of China...


Gb|-----------------------|------------------------|-----------------------|
Db|------------2h4---2----|------------------------|------------2h4---2----|
Ab|--4----4---------------|--4----4----4-----2-----|--2----2---------------|
Eb|-----------------------|---------------2-----4--|-----------------------|



Gb|-----------------------|-------------------------|----------------------|
Db|---------------4\-2----|-------------------------|----------------------|
Ab|--0----0----0--------4-|-------------------------|----------------------|
Eb|-----------------------|--4--4--4--4--4--4--4/-\-|-2----2----2----2--0--|
                                              Dirty  livinĄ


Gb|-----------------------|--------------15h-16---|--------------15h-16----|
Db|-------------2h4---2---|-----------------------|------------------------|
Ab|-----------------------|--4----4/--------------|--4----4/---------------|
Eb|--2----2--0------------|-----------------------|------------------------|
                                                                     I canĄt


Gb|---------------2-------|-----------------------|------------3h-4--3h-4--|
Db|------------------2----|-----------------------|------------------------|
Ab|--0----0----0--------0-|--2----2----2--------2-|--4----4----------------|
Eb|-----------------------|---------------2h-4----|------------------------|
   wait any longer...


Gb|------------3h-4--3h-4-|--------------2--------|------------------------|
Db|-----------------------|-----------------2-----|------------------------|
Ab|--4----4---------------|-0----0----0--------0--|--2----2----2--------2--|
Eb|-----------------------|-----------------------|---------------2h-4-----|



Gb|-----------------------|--------------6--8--9--|------------11--9-------|
Db|------------2----------|-----------------------|------------------------|
Ab|--4----4---------4--2--|--4----4---------------|------------------------|
Eb|-----------------------|-----------------------|------------------------|
            No, no, no, no...


Gb|--8----------9--8----|------------------------|----------------6--8--9--|
Db|---------------------|------------------------|-------------------------|
Ab|---------------------|--0----0-----0----0-----|--0----0-----0-----------|
Eb|---------------------|----------4----------4--|----------4--------------|



Gb|------------11--9----|--8----------9--8----|----------------------------|
Db|---------------------|---------------------|----------------------------|
Ab|---------------------|---------------------|--0----0----0----0----------|
Eb|---------------------|---------------------|----------------------------|



Gb|-------------------------|-----------------------|----------------------|
Db|-------------------------|-----------------------|----------------------|
Ab|-------------------------|-4----4----4-----2-----|-4----4----4-----2----|
Eb|--4--4--4--4--4--5p-4--0-|--------------2-----4--|--------------2-----4-|
   I gotta get away...


Gb|----------3h-4----------|---------3h-4-----------|----------------------|
Db|------------------------|------------------------|----------------------|
Ab|--4----4-----------2----|-4----4-----------2-----|-4----4----4----4--2h-|
Eb|----------------2-----4-|---------------2-----4--|----------------------|



Gb|-----------------------|---------8h-9\---------|---------8h-9\----------|
Db|-----------------------|-----------------------|------------------------|
Ab|--4----4----4-----2----|-4----4-----------2----|-4----4-----------2-----|
Eb|---------------2-----4-|---------------2-----4-|---------------2-----4--|






Gb|---------------2-------|-----------------------|------------------------|
Db|------------------2----|-----------------------|------------------------|
Ab|------------0--------0-|-2----2----2--------2--|--4----4----4-----2-----|
Eb|-/5---/5---------------|--------------2h-4-----|---------------2-----4--|
   Dirty livinĄ            dirty livinĄ            (ItĄs getting to me)


Gb|---------12h-13\---------|----------------------|-----------------------|
Db|-------------------------|----------------------|-----------------------|
Ab|--4/----------------2----|-4----4----4-----2----|--4----4----4-----2----|
Eb|-----------------2-----4-|--------------2-----4-|---------------2-----4-|



Gb|--------15h-16\---------|--------15h-16\---------|----------------------|
Db|------------------------|------------------------|----------------------|
Ab|-4-----------------2----|-4/----------------2----|-4----4----4-----2----|
Eb|----------------2-----4-|----------------2-----4-|--------------2-----4-|



Gb|----------------------|--------15h-16\---------|--------15h-16\---------|
Db|----------------------|------------------------|------------------------|
Ab|-4----4----4-----2----|-4-----------------2----|-4/----------------2----|
Eb|--------------2-----4-|----------------2-----4-|----------------2-----4-|



Gb|----------------------|------------------------|------------------------|
Db|----------------------|------------------------|------------------------|
Ab|--0----0----0----0----|--2----2----2--------2--|--4----x----4-----2-----|
Eb|----------------------|---------------2h-4-----|---------------2-----4--|
   I canĄt wait             I canĄt wait


Gb|--------15h-16\---------|-----------------------|-----------------------|
Db|------------------------|-----------------------|-----------------------|
Ab|-4/----------------2----|--4----4----4-----2----|--4----4----4-----2----|
Eb|----------------2-----4-|---------------2-----4-|---------------2-----4-|



Gb|-----------------------|-------------12h-13-----|-----------------------|
Db|-----------------------|------------------------|-----------------------|
Ab|--4----4----4-----2----|--4/---16---------------|--4----4----4-----2----|
Eb|---------------2-----4-|------------------------|---------------2-----4-|



Gb|----------------------|----------------------|-----------12h-13--12h-13-|
Db|----------------------|----------------------|--------------------------|
Ab|-4----4----4-----2----|-4----4----4-----2----|-4/---16------------------|
Eb|--------------2-----4-|--------------2-----4-|--------------------------|
                                                                   Fade out
  development and support by
dmitry ivanov