rock
 
|tablatures   |lyrics   |discussion forums   |more tabs @ XGuitar.com

Kiss tabs

Deuce guitar tab

Deuce by KISS
From the album KISS
--------------------------------------------------------------------



  intro  (rhythm 1)
e:---------------------------------------------------------------------------|
B:---------------------------------------------------------------------------|
G:-----14-14-14-14-14-------------10------------12-12-12-------14-14-14-14-14|
D:-----14-14-16-14-16----10-10-10-10---12-12-12-12-14-12-12----14-14-16-14-16|
A:-----0--0--0--0--0--0--10-10-12------12-12-14----------14----0--0--0--0--0-|
E:---------------------------------------------------------------------------|




                        (rhythm 2)
e:---------------------------------------------------------------------------|
B:---------------------------------------------------------------------------|
G:-14------------10~----2--2--2------5--7---5---5--5/7--5----------2--2--2---|
D:-14---10-10-10-10~----2--2--2---5-55--7---5---5--5/7--5--7--5----2--2--2---|
A:-0----10-10-12--------0--0--0------------0---------------7--5----0--0--0---|
E:---------------------------------------------------------------------------|




                                   "Pick up and...."
e:---------------------------------------------------------------------------|
B:---------------------------------------------------------------------------|
G:---5--7---5---5--5/7--5----------2~------5-----7-----5-----------2--2--2---|
D:5-55--7---5---5--5/7--5--7--5----2~------5-----7-----5-----------2--2--2---|
A:-------------------------7--5----0~------3-----5-----3------0-0--0--0--0---|
E:---------------------------------------------------------------------------|





e:---------------------------------------------------------------------------|
B:---------------------------------------------------------------------------|
G:-----5--7---5---5--5/7--5----------2-----5-----7-----5-----2--------5~-----|
D:--5-55--7---5---5--5/7--5--7--5----2-----5-----7-----5-----2--------5~-----|
A:---------------------------7--5----0-----3-----5-----3-----0--------3~-----|
E:---------------------------------------------------------------------------|


                                                         


e:------------------------------------------------------|
B:------------------------------------------------------|
G:------------------5-----------------------------------|
D:-------------2----5-----------------2---3~------5-5-5-|
A:3-4-5--------2----3----3-4-5--------2---3~------5-5-5-|
E:------3-4-5--0---------------3-4-5--0---1~--11--3-3-3-|


                                                

  syncopated fill over rhythm 2
e:---------------------------------------------|
B:--5/8--8-88-88-888--5/8--8-88-88-888--8b(10)-|
G:---------------------------------------------|
D:---------------------------------------------|
A:---------------------------------------------|
E:---------------------------------------------|




  solo over rhythm 2
e:------------------------------------------------5--------5-----------------|
B:----5------5------5-----------------------5-----5--5-----5--5--------------|
G:----7b(9)--7b(9)--7b(9)--7b-7-7b-7-7b-7---7b(9)----7b(9)----7b(9)--5/7/5/7/|
D:---------------------------------------------------------------------------|
A:---------------------------------------------------------------------------|
E:---------------------------------------------------------------------------|





e:-----------------------------------------------------------------5--------5|
B:----------------------5------5------5----------------------5-----5--5-----5|
G:5/7/5/7/5/7/5/7/5-----7b(9)--7b(9)--7b(9)--7b-7-7b-7-7b7---7b(9)----7b(9)--|
D:---------------------------------------------------------------------------|
A:---------------------------------------------------------------------------|
E:---------------------------------------------------------------------------|





e:------------------------------------------------12b(14)-12b~-12b~-12b~-10/12
B:--5---------------------------------------10-12----------------------------|
G:--7b(9)--5/7/5/7/5/7/5/7/5/7/5/7/5---9/11----------------------------------|
D:---------------------------------------------------------------------------|
A:---------------------------------------------------------------------------|
E:---------------------------------------------------------------------------|





e: /10/8--10-8----------8-----8--8--10/9/8/10/9/8/10/9/8/10/9/8-10/8/10/8----|
B:-------------10-8--10----10------------------------------------------------|
G:---------------------------------------------------------------------------|
D:---------------------------------------------------------------------------|
A:---------------------------------------------------------------------------|
E:---------------------------------------------------------------------------|





e:10b(12)-10b(12)-8/10/8------------------------------------------------------|
B:-----------------------10--10b(13)-10b(13)-10-8---8---10-8-----------------|
G:------------------------------------------------9-----------9-7--7-5-------|
D:----------------------------------------------------------------------7-5--|
A:---------------------------------------------------------------------------|
E:---------------------------------------------------------------------------|




                                                                            
e:5--------------------------------------------------------------------------|
B:--8-5----------------------------------------------------------------------|
G:------8-7-5---------------5~---------------------5-------------------------|
D:------------7-6-5---------5~---------------------5--------------------3----|
A:------------------7-6-5---3~---3-4-5--------2----3---3-4-5--------2---3----|
E:-------------------------------------3-4-5--0--------------3-4-5--0---1---1|


             
             
  to intro    
e:----------|
B:----------|
G:----------|
D:--5--5--5-|
A:--5--5--5-|
E:1-3--3--3-|




  slight variation
e:---------------------------------------------------------------------------|
B:---------------------------------------------------------------------------|
G:---14-14-14-14-14------------10--12--12-12-12-------12----14-14-14-14-14-14|
D:---14-14-16-14-16---10-10-10-10--12--12-14-12-12-12-12----14-14-16-14-16-14|
A:---0--0--0--0--0----10-10-12------------------12-14-------0--0--0--0--0--0-|
E:---------------------------------------------------------------------------|


                 
  development and support by
dmitry ivanov