rock
 
|tablatures   |lyrics   |discussion forums   |more tabs @ XGuitar.com

Kiss tabs

Detroit Rock City guitar tab

Detroit Rock City by KISS
From the album Destroyer
--------------------------------------------------------------------




e:---------------------------------------------------------------------------|
B:---------------------------------------------------------------------------|
G:-------------------------------------------------------------------------2~|
D:-----------------------------------6-4-6-4-6-4-6-4---6-6-6-6-6-6-6-------2~|
A:--4-2-4-2-4-2-4-2-4-2-4-2-4-2-4-2--------------------4-4-4-4-4-4-4----2--0~|
E:----------------------------------------------------------------------0----|
        guitar 1                       guitar 2



                                                                           "I 
e:---------------------------------------------------------------------------|
B:---------------------------------------------------------------------------|
G:------4~-----6-4-6-4-6-4-6-4-6-4-6-4----------------------2~------4~-----6~|
D:------4~-----6-4-6-4-6-4-6-4-6-4-6-4---6-6-6-6-6-6-6------2~------4~-----6~|
A:---2--2~-------------------------------4-4-4-4-4-4-4---2--0~---2--2~-----4~|
E:---0---------------------------------------------------0-------0-----------|
                  for 1 guitar                                             



 feel uptight..."       repeat
e:----------------------------|
B:----------------------------|
G:--------4~----4~----6~---6~-|
D:--------2~----4~----4~---6~-|
A:--------------2~---------4--|
E:----------------------------|
  verses



    "Get up.."                                                     to verse 2
e:---------------------------------------------------------------------------|
B:---------------------------------------------------------------------------|
G:-----2~--------4~-------------------------------------------------2-------4|
D:-----2~--------4~------------------------------2--------2---------2-------4|
A:--2--0~-----2--2~-----4---4-2----2--4----4-2-4---4--------4----2--0----2--2|
E:--0---------0-----------------4---------------------2-4--------0-------0---|


            
            
        
e:---------|
B:---------|
G:----6~---|
D:----6~---|
A:----4~---|
E:---------|





e:---------------------------------------------------------------------------|
B:-----------------------------------------------------------------------2-2-|
G:---------------------------------------------------------------------------|
D:--------------------------2--------2----------------------------2----------|
A:---4---4-2----2-4---4-2-4---4--------4----4---4-2---2-4---4-2-4---4--------|
E:-----------4-------------------2-4---------------4-------------------------|





e:---------|-------------------------------------------------------------|
B:2--2-0---|-------------------------------------------------------------|
G:-------1-|-------------------------------------------------------------|
D:---------|--------------------------4--------4-----------4--------4----|
A:---------|---6---6-4----4-6---6-4-6---6--------6---6-4-6---6--------4--|
E:---------|-----------6-------------------4-6------------------4-6------|




   solo for 1 guitar
e:---------------------------------------------------------------------------|
B:-----4-2~----5-4-2--5-4-2-------4/5-4------------2------2-----------------4|
G:-1-4---------------------4~---4------4--2-1-2~-----4-2----4-2-1~------1-4--|
D:---------------------------------------------------------------------------|
A:---------------------------------------------------------------------------|
E:---------------------------------------------------------------------------|





e:---------------------------------------------------------------------------|
B:------5-4-2--5-4-2---------4/5-4---------------2/4~--2~---2222222--2-5~--9-|
G:-2~----------------4~----4------4--2-1-2---1~------------------------------|
D:---------------------------------------------------------------------------|
A:---------------------------------------------------------------------------|
E:---------------------------------------------------------------------------|





e:--------------------------------------------------9--7/9/7-----------------|
B:7----9-7-------7-9-7-----7-------9-9--7--------------------9-7-----9-7---9-|
G:--9------9-8~--------9-8---9~--9-------9-8-9~---9--------------9~-----9----|
D:---------------------------------------------------------------------------|
A:---------------------------------------------------------------------------|
E:---------------------------------------------------------------------------|


                         
                         

e:----------------------|
B:7------7-9-7-----7----|
G:-9-8~--------9-8---6~-|
D:----------------------|
A:----------------------|
E:----------------------|


  development and support by
dmitry ivanov