rock
 
|tablatures   |lyrics   |discussion forums   |more tabs @ XGuitar.com

Kiss tabs

Dark Light guitar tab

Dark Light by KISS
From the album The Elder
--------------------------------------------------------------------




e:---------------------------------------------------------------3---3~------|
B:---------------------------------------------------------------3---3~------|
G:----------------------------------2--4--5--4--2--4--5--4--2----0---0~------|
D:----------------------------------0--2--3--2--0--2--3--2--0----0---0~------|
A:--4-5-4-5-4-5-4-5-4-5-4-5-4-5-4-5------------------------------x---x-------|
E:---------------------------------------------------------------3---3~------|





e:-------------------3---------3---3~---------------------------3---3~-------|
B:-------------------3---------3---3~---------------------------3---3~-------|
G:-2--4--5--4--2--4--0--4--2---0---0~----------2--4--5--4--2----0---0~-------|
D:-0--2--3--2--0--2--0--2--0---0---0~----------0--2--3--2--0----0---0~-------|
A:-----------------------------x---x----------------------------x---x--------|
E:-----------------------------3---3~---------------------------3---3~-------|




                                           "Now  look    up"
e:----------------3------------------3~------------------3-------------------|
B:0--2--3--2--0---3------0--2--3--2--3~------------------3-------0--2--3--2--|
G:0--2--3--2--0----------0--2--3--2--0~------------------0-------0--2--3--2--|
D:0--2--3--2--0----------0--2--3--2--0~-----------9------0-------0--2--3--2--|
A:-----------------------------------x------------7------x-------------------|
E:-----------------------------------3~-----------0------3-------------------|




               "watch   out"                             "Wise    up"    "...
e:-----3~----------------3-----------------------3~----------------3---------|
B:0----3~----------------3------0--2--3--2--0----3~----------------3--------0|
G:0----0~----------------0------0--2--3--2--0----0~----------------0--------0|
D:0----0~--------9-------0------0--2--3--2--0----0~--------9-------0--------0|
A:-----x~--------7-------x-----------------------x---------7-------x---------|
E:-----3~--------0-------3-----------------------3~--------0-------3---------|




  ...watch your step...."                   "A dark light...."
e:--------------3------------------3-----------------------------------------|
B:--2--3--2--0--3------0--2--3--2--3-------------3-----5-----------3--5--3--5|
G:--2--3--2--0--0------0--2--3--2--0-------------5-----5-----------5--5--5--5|
D:--2--3--2--0--0------0--2--3--2--0-------------5-----5-----------5--5--5--5|
A:---------------------------------------------------------------------------|
E:---------------------------------------------------------------------------|




           "..dark lite.."                     "..dark nite.."
e:---------------------------------------------------------------------------|
B:--6~--------3-----5--------3--5--3--5--6~---------3----5-------3--5--3--5--|
G:--5~--------5-----5--------5--5--5--5--5~---------5----5-------5--5--5--5--|
D:--5~--------5-----5--------5--5--5--5--5~---------5----5-------5--5--5--5--|
A:---------------------------------------------------------------------------|
E:---------------------------------------------------------------------------|




                    "no time to wait....."         solo                   etc
e:---------------------------------------------------------------------------|
B:6~-------3---5-------8-----6---------3~-----------15-15-15-15-15-15b-15b-15|
G:5~-------5---5-------7-----5----0----2~------------------------------------|
D:5~-------5---5-------5-----3----0----0~------------------------------------|
A:---------------------------------------------------------------------------|
E:---------------------------------------------------------------------------|
                                                   gradual bend ^




e:---------------------------------------------------------------------------|
B:b-15b-15b------------------------------------------------------------------|
G:----------12~----12--14--14b/14--12--14--12--------------12/14/12--11/12/11|
D:---------------------------------------------14-12-14----------------------|
A:---------------------------------------------------------------------------|
E:---------------------------------------------------------------------------|




                                                                etc
e:---------------------------------------------------------------------------|
B:---------------------------------------------------------------------------|
G:--9/11/9--7/9/7--6/7/6--4/6/4--2/4/2--4/2/0/4/2/0/4/2/0/4/2/0/4/2/0--------|
D:--------------------------------------------------------------------0/2/4/0|
A:---------------------------------------------------------------------------|
E:---------------------------------------------------------------------------|





e:---------------------------------------------------------------------------|
B:---------------------------------------------------------------------------|
G:---------------------------------9~-------12-14---12-12-12-12~/0-----------|
D:/2/4/0/2/4/0/2/4/0/2/4-----------9~-------12-14---12-12-12-12~/0-----------|
A:------------------------------------------------------------------------2~-|
E:------------------------3b--0-------------------------------------------0~-|
                                                              ^ slide down




e:-------------12---12-14--15-14-12------------------------------------------|
B:----------------------------------15-14-12-----------15---------14---------|
G:---12~-------------------------------------14--12-------14-12------14-12---|
D:---12~---------------------------------------------------------------------|
A:---------------------------------------------------------------------------|
E:---------------------------------------------------------------------------|





e:--------------------15--15-14-12-------------------------------------------|
B:15--------14----------------------15---15-15-14-12-------------------------|
G:--14-12-----14-12---------------------------------14--12/14/12/-10/12/10/-8|
D:---------------------------------------------------------------------------|
A:---------------------------------------------------------------------------|
E:---------------------------------------------------------------------------|




          ???????????????
e:-------------------------------------15-15-15-15-15-15-14-14-12-12--15b~~--|
B:---------------------------------------------------------------------------|
G:/10/8/-7/8/7-5/7/5-3/5/3-2/3/2/0-------------------------------------------|
D:---------------------------------------------------------------------------|
A:---------------------------------------------------------------------------|
E:---------------------------------------------------------------------------|
                                       ^similar pattern 24x




e:--------------------|
B:-12/15/12-----------|
G:---------14-12--14b~|
D:--------------------|
A:--------------------|
E:--------------------|
    to verse

  development and support by
dmitry ivanov