rock
 
|tablatures   |lyrics   |discussion forums   |more tabs @ XGuitar.com

Kiss tabs

Dark Light bass tab

DARK LIGHT (from the KISS CD "THE ELDER")
--------------------

Transcribed by Emil Ortenmark, emil@kissasylum.com

Standard tuning

Comments: Just follow the guitars and then get out of the way for the solo.
Ace probably wrote and played this bass part.


Key:
/    = slide up
\    = slide down
b    = bend (whole step)
b^   = bend (1/2 step)
b^^  = bend (1 1/2 steps)
pb   = pre-bend
r    = release-bend
t    = tap with righthand finger
h    = hammer-on
p    = pull-off
~    = Vibrato
*    = Natural Harmonic
#(#) = Trill
**   = Artificial Harmonic
x    = Dead notes (no pitch)
P.M. = Palm mute (- -> underneath indicates which notes)
(\)  = Dive w\bar
(/)  = Release w\bar
Tp   = Tap w\plectrum




Rhythm Fig. 1

G|----------------------------------------------------|
D|----------------------------------------------------|
A|---5-7--8--7--5--7--8--7--5-------------------------|
E|-----------------------------3-3--------------------|



G|----------------------------------------------------|
D|--------------------5-------------------------------|
A|---5-7--8--7--5--7-----7--5-------------------------|
E|-----------------------------3-3--------------------|



G|----------------------------------------------------|
D|------------------------------------5---------------|
A|--5-7--8--7--5--------------------------------------|
E|---------------3-3-----3-5--6--5-3------3-5--6--5-3-|



Rhythm Fig. 2

G|----------------------------------------------------|
D|-------------------------------5--------------------|
A|--3-------------------------------------------------|
E|----------3------3-5--6--5-3------------------------|



Rhythm Fig. 3

G|----------------------------------------------------|
D|-------------------------------5--------------------|
A|--3-------------------------------------------------|
E|----------3------3-5--6--5-3-------3-5--6--5-3------|



Rhythm Fig. 4

G|-------5-----------5--------------------------------|
D|----------------------------------------------------|
A|--3---------3-3--3----------------------------------|
E|----------------------------------------------------|



Rhythm Fig. 5

G|--7-------------------------------------------------|
D|-----7--5-------------------------------------------|
A|-----------5----------------------------------------|
E|----------------------------------------------------|
  development and support by
dmitry ivanov