rock
 
|tablatures   |lyrics   |discussion forums   |more tabs @ XGuitar.com

Kiss tabs

Danger guitar tab

DANGER by KISS
From the album Creatures of the Night
--------------------------------------------------------------------



   intro
e:----0-0-0-0-0-0-0-0-0-0-0-0-0-0-0-0-0-0-0-0-0-0-0-0-0----------------------|
B:----3/5-5-5/3-3-3/5-5-5/3-3-3/5-5-5/3-3-3/5-5-5/3-3-3---------8----------10|
G:--------------------------------------------------------------9----------11|
D:--------------------------------------------------------------9----------11|
A:--------------------------------------------------------7-7-7------9-9-9---|
E:---------------------------------------------------------------------------|




                                   "In the night.....I will be waiting"     "
e:---------------------------------------------------------------------------|
B:------------12~------------------------------------------------------------|
G:------------12~----12/14/12----------------12~-----12-11--9--11--9~--------|
D:------------12~----12/14/12----------------12~-----12-11--9--11--9~--------|
A:---10-10-10--------------------------------10~------------------(7)--------|
E:---------------------------------------------------------------------------|
                    repeat 3X



  Ready to go  soon as the daylight is breakin"    "In the night   my heart 
e:---------------------------------------------------------------------------|
B:---------------------------------------------------------------------------|
G:12-12-12-12---12--12--12--12--11--9--11---9-------9---11----2~---2----2----|
D:12-12-12-12---12--12--12--12--11--9--11---9-------9---11----2~---2----2----|
A:10-10-10-10---10--10--10--10--------------7-------7---9-----0~-------------|
E:---------------------------------------------------------------------------|




  is beatin"   "Out of control  cant stop the way that I'm feelin"
e:--------------------------------------------------------------------7-5----|
B:------------------------------------------------------------------------8--|
G:4----5~------12--12--12--12---12--12--12--12---11---9---11--9~-------------|
D:4----5~------12--12--12--12---12--12--12--12---11---9---11--9~-------------|
A:-------------10--10--10--10---10--10--10--10----------------7~-------------|
E:---------------------------------------------------------------------------|




                          "I wanna know..."   "..takin my life in my hands"
e:7--------------------------------------------------------------------------|
B:--8-7--8-7-5--7-5----------------------------------------------------------|
G:------------------7---5~-------------------------4~------------------4~----|
D:----------------------5~-------------------------4~------------------4~----|
A:----------------------3~-------------------------2~------------------2~----|
E:---------------------------------------------------------------------------|


                                                      
                         lyrics ????
    "Out own my own..." "Call me a ?????????????"
e:---------------------------------------------------|
B:---------------------------------------------------|
G:----5~-------------------9--9--9----7--7--7----4~--|
D:----5~-------------------9--9--9----7--7--7----4~--|
A:----3~-------------------7--7--7----5--5--5----2~--|
E:---------------------------------------------------|




  chorus      "Danger              danger"            "Danger               
e:---------------------------------------------------------------------------|
B:---------------------------------------------------------------------------|
G:--------------9---------9---------9---------7------------9---------9-------|
D:--------------9---------9---------9---------7------------9---------9-------|
A:--------------7---------7---------7---------5------------7---------7-------|
E:--------0-0-0-0---0-0-0-0---0-0-0-0---0-0-0--------0-0-0-0---0-0-0-0---0-0-|




  Danger"                           "..pleasure & pain.."   "..boiling the 
e:---------------------------------------------------------------------------|
B:---------------------------------------------------------------------------|
G:--9---------7--9--7-----5---4---2---4---2---0---2~------------2~----------2|
D:--9---------7--9--7-----5---4---2---4---2---0---2~------------2~----------2|
A:--7---------5--7--5-----------------------------0~------------0~-----------|
E:0-0---0-0-0----------------------------------------------------------------|




  blood in my veins"       "Danger            Danger"                 "Danger
e:---------------------------------------------------------------------------|
B:------------3~-------------------------------------------------------------|
G:---4---5----2~-------------9---------9---------9---------7------------9----|
D:---4---5----0~-------------9---------9---------9---------7------------9----|
A:------------0~-------------7---------7---------7---------5------------7----|
E:---------------------0-0-0-0---0-0-0-0---0-0-0-0---0-0-0--------0-0-0-0---0|




            Danger"                "nothing can stand in my way"      "I'll 
e:---------------------------------------------------------------------------|
B:---------------------------------------------------------------------------|
G:-----9---------9---------7-9-7-----5---4---2---4---2---0---2~--------5---4-|
D:-----9---------9---------7-9-7-----5---4---2---4---2---0---2~--------5---4-|
A:-----7---------7---------5-7-5-----------------------------0~--------------|
E:-0-0-0---0-0-0-0---0-0-0---------------------------------------------------|


                                                                

  make the best of my day"                      to 2nd verse
e:-------------------------------14b~~~----14b--14b--12--------|
B:------------------------------------------------------12~----|
G:--2---4---2---0----------4~----------------------------------|
D:--2---4---2---0---3~-----4~----------------------------------|
A:------------------3~-----2~----------------------------------|
E:------------------1~-----------------------------------------|
                                                        ^dive



   solo                                                          etc
e:------------------15-15------15-15------15------15------15------15----17b~-|
B:------18b~~~---18b-------18b--------18b-----18b-----18b-----18b------------|
G:---------------------------------------------------------------------------|
D:---------------------------------------------------------------------------|
A:---------------------------------------------------------------------------|
E:---------------------------------------------------------------------------|





e:-------------12--------------12-12-----------------------------------------|
B:17------15b-----15-12-----12------------15-------15------15----------------|
G:----------------------14b-----------14------12-------11-------11--11b/11--9|
D:---------------------------------------------------------------------------|
A:---------------------------------------------------------------------------|
E:---------------------------------------------------------------------------|


                                              


e:-------------------------------------------| The rest of the solo is
B:-------------------------------------------| AWESOME....but it is
G:-------------------------------------------| certainly beyond my means!!
D:-----------------------0--1--2-------------|
A:--------------5--4--2----------------------|
E:----0--2--3-----------------------0--2--3--|




   outtro
   chorus     "Danger            Danger                 Danger             
e:---------------------------------------------------------------------------|
B:---------------------------------------------------------------------------|
G:----------------9---------9---------9---------7----------9---------9-------|
D:----------------9---------9---------9---------7----------9---------9-------|
A:----------------7---------7---------7---------5----------7---------7-------|
E:----------0-0-0-----0-0-0-----0-0-0-----0-0-0------0-0-0-----0-0-0-----0-0-|




  Danger"          "Fire can......"          "I've passed......of return"
e:---------------------------------------------------------------------------|
B:---------------------------------------------------------------------------|
G:--9---7-9-7-----5--4--2--4--2--0--2~------------------------------4~-------|
D:--9---7-9-7-----5--4--2--4--2--0--2~-------2~---------------------4~-------|
A:--7---5-7-5-----------------------0~-------2~---------------------2~-------|
E:0------------------------------------------0~------------------------------|




   "Danger            Danger"        1st time     2nd time     3rd time
e:--------------------------------|------------|------------|------------|
B:--------------------------------|------------|------------|------------|
G:---------9---------9---------9--|--7--11-12--|--12--11-7--|--7--11-12--|
D:---------9---------9---------9--|--7--11-12--|--12--11-7--|--7--11-12--|
A:---------7---------7---------7--|--5--9--10--|--10--9--5--|--5--9--10--|
E:---0-0-0-----0-0-0-----0-0-0----|------------|------------|------------|


  development and support by
dmitry ivanov