rock
 
|tablatures   |lyrics   |discussion forums   |more tabs @ XGuitar.com

Kiss tabs

Dance All Over Your Face bass tab

DANCE ALL OVER YOUR FACE (from the KISS CD "LICK IT UP")
--------------------

Transcribed by Emil Ortenmark, emil@kissasylum.com

Standard tuning

Comments: Gene really dances all over this track. During the verses he plays
repetitive patterns but they are fairly different in each verse. The chorus
has an alternating two-bar pattern to it. One bar stays the same and the
other goes haywire. Nary a thing gets played twice, which of course is a
bitch for me transcribing. In some places it is a little hard to hear what?s
going on but this is pretty darn close across the board. In two places the
same "fill" shows up where there?s a slide from the 3rd fret G to the 10th
fret D. Now, I?ve put the D in parenthesis because it is not plucked, in
fact it is hardly played at all. It is basically just the aiming point for
that slide. Also, most of the "fills" during the chorus is played very
staccato.


Key:
/    = slide up
\    = slide down
b    = bend (whole step)
b^   = bend (1/2 step)
b^^  = bend (1 1/2 steps)
pb   = pre-bend
r    = release-bend
t    = tap with righthand finger
h    = hammer-on
p    = pull-off
~    = Vibrato
*    = Natural Harmonic
#(#) = Trill
**   = Artificial Harmonic
x    = Dead notes (no pitch)
P.M. = Palm mute (- -> underneath indicates which notes)
(\)  = Dive w\bar
(/)  = Release w\bar
Tp   = Tap w\plectrum


Rhythm Fig. 1

G|----------------------------------------------------|
D|----------------------------------------------------|
A|------15\---3---------------------------------------|
E|-----------------3----------------------------------|



Rhythm Fig. 2

G|----------------------------------------------------|
D|----------------------------------------------------|
A|----------------------------------------------------|
E|--3h5-5--5--3--3h5-5--5--3--3h5-5--5--5--5--5--5-3--|



G|----------------------------------------------------|
D|----------------------------------------------------|
A|-------------------------3--3h5-5-5\----------------|
E|--3h5-5--5--3--3h5-5--5---------------------3-------|



G|----------------------------------------------------|
D|----------------------------------------------------|
A|----------------------------------------------------|
E|--3h5-5--5--3--3h5-5--5--3--3h5-5--5--5--5-3---5-3--|



G|----------------------------------------------------|
D|----------------------------------------------------|
A|-------------------------3--3h5-5-5/--------19\-----|
E|--3h5-5--5--3--3h5-5--5-----------------------------|



G|----------------------------------------------------|
D|----------------------------------------------------|
A|-----------------------------------------3----------|
E|--3h5-5--5--3--3h5-5--5--3--3h5-5--5--5----5-5--5-3-|



G|----------------------------------------------------|
D|----------------------------------------------------|
A|-------------------------3--3h5-5-5\----------------|
E|--3h5-5--5--3--3h5-5--5-----------------------------|



Rhythm Fig. 3a

G|----------------------------------------------------|
D|----------------------------------------------------|
A|--7-7---5-5----7p5---7-7-----7-7---5-5--------------|
E|-------------------7-----0--------------------------|



Rhythm Fig. 3b

G|----------------------------------------------------|
D|----------------------------------------------------|
A|--7-7---5-5----7p5---7-7----7-7\--2-----------------|
E|-------------------7-----0---------------0--2--3----|


Rhythm Fig. 3c

G|----------------------------------------------------|
D|----------------------------------------------------|
A|--7-7---5-5----7p5---7-7-----7-7\--2----------------|
E|-------------------7-----0--------------------------|



Rhythm Fig. 4

G|----------------------------------------------------|
D|----------------------------------------------------|
A|--0----0---0-------------5----5---5p3--2------------|
E|-------------3--3--3----------------------3---------|



G|----------------------------------------------------|
D|---------------------------------3-4-5--------------|
A|--0----0---0-------------5----5---------3-----------|
E|-------------3--3--3-----------------------3--------|



G|------------------------------------------x--19\----|
D|-------------------------0------17-18-19------------|
A|--0----0---0----------------------------------------|
E|-------------3--3--3--------------------------------|



G|----------------------------------------------------|
D|----------------------------------------------------|
A|--0----0---------------5----------------------------|
E|--------------3--3--------------0--0--2--2----------|



Rhythm Fig. 5

G|----------------------------------------------------|
D|----------------------------------------------------|
A|-----------------------3---3h5-5-5------------------|
E|--3h5-5-5------5p3--5-------------------------------|



G|----------------------------------------------------|
D|----------------------------------------------------|
A|-----------------------3---3h5-5-5-----3------------|
E|--5-5-5-5------5p3--5-----------------------3-------|



G|----------------------------------------------------|
D|----------------------------------------------------|
A|------------------------------------------5--3------|
E|--5p3-3-3-5--3--5--3--x-3---5p3-3-3-5--3-------x-3--|



G|-------------------------------2--------------------|
D|----------------------------------4-----------------|
A|-------------------------------------3--2--0--------|
E|--5p3-3-3-5--3--5--3--x-3---x-----------------2--3--|



G|----------------------------------------------------|
D|----------------------------------------------------|
A|------------------------------------------5--3------|
E|--5p3-3-3-5--3--5--3--x-3---5p3-3-3-5--3-------x-3--|



G|----------------------------------------------------|
D|----------------------------------------------------|
A|-------------------------3---3h5-5-5\---------------|
E|--5p3-3-3-5--3--5--3--5-----------------------------|




Rhythm Fig. 6

G|----------------------------------------------------|
D|----------------------------------------------------|
A|--0----0---0-------------5----5---5p3--2------------|
E|-------------3--3--3----------------------3---------|



G|----------------------------------------x-----------|
D|----------------------------------5--7--------------|
A|--0----0---0-------------5--------------------------|
E|-------------3--3--3--------------------------------|



G|----------------------------------------------------|
D|--------------------------------5-6-7---------------|
A|--0----0---0-------------5-------------7--5\--------|
E|-------------3--3--3--------------------------------|



G|---------------------------12-13-14--12-------------|
D|-----------------------------------------14--12-----|
A|--0----0---0------------------------------------15\-|
E|------------3--3--3/---(10)-------------------------|



G|----------------------------------------------------|
D|-----------------------------4/5---5/7---7/10-------|
A|--0----0---0-------------5--------------------------|
E|-------------3--3--3--------------------------------|




G|----------------------------------------------------|
D|------------------------------5--4------------------|
A|--0----0---0-------------5----------5--3------------|
E|-------------3--3--3----------------------3---------|



G|----------------------------------x-12--------------|
D|------------------------------4/--------12----------|
A|--0----0---0-------------5------------------12------|
E|-------------3--3--3--------------------------------|



G|----------------------------------------------------|
D|----------------------------------------------------|
A|--0----0---0-------------5----3-3-4-5---------------|
E|-------------3--3--3--------------------------------|



Rhythm Fig. 7

G|----------------------------------------------------|
D|----------------------------------------------------|
A|----------------------------------------------------|
E|--3--5--5--5--5--5--5--5--5--5--5--5--5--5--5--5----|



G|----------------------------------------------------|
D|----------------------------------------------------|
A|----------------------------------------------------|
E|--5--5--5--5--5--5--5--5--5--5--5--5--0-0---x-2-----|



G|----------------------------------------------------|
D|----------------------------------------------------|
A|----------------------------------------------------|
E|--5--5--5--5--5--5--5--5--5--5--5--5--5--5--5--3-4--|



G|----------------------------------------------------|
D|----------------------------------------------------|
A|----------------------------------------------------|
E|--5--5--5--5--5--5--5--5--5--5--5--5--0----2--3-----|




Rhythm Fig. 8

G|----------------------------------------------------|
D|----------------------------------------------------|
A|--0----0---0-------------5----5----5p3-3------------|
E|-------------3--3--3----------------------0--3------|



G|----------------------------------------------------|
D|----------------------------------------------------|
A|--0----0---0--------------5-------------------------|
E|-------------3--3--3--------------------------------|



G|----------------------------------------------------|
D|--------------------------------3-4-5--4------------|
A|--0----0---0-------------5----------------5-3-------|
E|-------------3--3--3--------------------------------|



G|----------------------------------------------------|
D|----------------------------------------------------|
A|--0----0---0-------------5----5----3h5-5--5---------|
E|-------------3--3--3-------------------------0h3----|



G|--------------------------------------5-------------|
D|-----------------------------------------7-5--------|
A|--0----0---0-------------5----5----x----------------|
E|-------------3--3--3--------------------------------|



G|--------------------------12-13-14--12--------------|
D|----------------------------------------14--12------|
A|--0----0---0------------------------------------15\-|
E|------------3--3--3/--(10)--------------------------|



G|----------------------------------------------------|
D|----------------------------------------------------|
A|--0----0---0-------------5----5---2h3--2------------|
E|-------------3--3--3----------------------3---------|



G|----------------------------------------------------|
D|----------------------------------------------------|
A|--0----0---0-------------5----3-4-5----3-4-5-5------|
E|-------------3--3--3--------------------------------|



G|----------------------------------------------------|
D|----------------------------------------------------|
A|--0----0---0-------------5----3h5--3h5--3-----------|
E|-------------3--3--3-----------------------3--------|


Riff 1

G|----------------------------------------------------|
D|----------------------------------------------------|
A|--12\-----------------------------------------------|
E|----------------------------------------------------|
  development and support by
dmitry ivanov