rock
 
|tablatures   |lyrics   |discussion forums   |more tabs @ XGuitar.com

Kiss tabs

Charisma bass tab

Submitted By: Alex
Email: dr_bypass@yahoo.com
Band: Kiss
Song: Charisma



intro...
G--------------------------------------------------------
D--------------------------------------------------------
A-------------------------2---------------------2-1------
E-2-4-4--4-4-4--4-4-4---2---2-4-4--4-4-4--4-4-4-----4-0-0

G--------------------------------------------------------
D--------------------------------------------------------
A---------------2-1---------------------2-4-2------------
E-0-0-0--0-0-0------2-4-4--4-4-4--4-4-4------------------

lyrics...
G--------------------------------------------------------
D--------------------------------------------------------
A---------------6-6--6-6-6--6--------------6-6--6-6-6--6-
E-4-4--4-4-4--4----------------4-4--4-4-4-4--------------

G--------------------------------------------------------
D--------------------------------------------------------
A--------------------------------------------------------
E-0-0-0-0-0-0-0-0-2--(repeat)----------------------------

guitar solo "build up.."
G--------------------------------------------------------
D--------------------------------------------------------
A-----------------------------7-7--7-7-7--7-9-9--9-9-9--9
E-2-2--2-2-2--2-4-4--4-4-4--4----------------------------

G--------------------------------------------------------
D--------------------------------------------------------
A-2-2--2-2-2--2-4-4--4-4-4--4-6-6-6-6-6-6-6-6-6-6-6-6--/-
E--------------------------------------------------------

....repeat intro & lyric riff til end

make sure include ...
G----------------------/13-13--13-13--(x2)---------------

right before the end...

practice every day!!!!!
  development and support by
dmitry ivanov