rock
 
|tablatures   |lyrics   |discussion forums   |more tabs @ XGuitar.com

Kiss tabs

Calling Dr. Love bass tab

Bass line for "Calling Dr. Love" by Kiss

Transcribed by S.Andersson



Intro & verse
G ---------------------------------------
D ---------------------------------------
A ------------------5----5-5-------------
E 0----0-0-3----3-3----------5---5-3-----

Variant of verse
G ---------------------------------------
D ---------------------------------------
A ---7------------2-3-5--5--3-2-0--0-----
E 0-----0-2-3--3----------------------3-2-

Last verse before chorus
G ----------------------------------------------------------
D ------------------------5---------------------------------
A ---7-------------2-3--------5---3-3--3-3--3-3--3--5-5-----
E 0-----0-2-3--3--------------------------------------------


Chorus
E --------------------------------------
B --------------------------------------
G --------------------------------------
D 7\-----------7--5----5-------0--------
E ----0----0--------------7-------3-2---


Last time at chorus
E ---------------------------------------
B ---------------------------------------
G ---------------------------------------
D 7\-----------7-----------5-------------
E ----0----0------8----7-5-----5-3-0-0---




  development and support by
dmitry ivanov