rock
 
|tablatures   |lyrics   |discussion forums   |more tabs @ XGuitar.com

Kiss tabs

Cadillac Dreams bass tab

CADILLAC DREAMS (from the KISS CD "HOT IN THE SHADE")
--------------------

Transcribed by Emil Ortenmark, emil@kissasylum.com

Standard tuning

Comments: Gene obviously felt the swing on this album. Here we have swing
eights at a pretty fast tempo. Gene also adds plenty of one of his trade-
marks: hammered-on octaves.


Key:
/    = slide up
\    = slide down
b    = bend (whole step)
b^   = bend (1/2 step)
b^^  = bend (1 1/2 steps)
pb   = pre-bend
r    = release-bend
t    = tap with righthand finger
h    = hammer-on
p    = pull-off
~    = Vibrato
*    = Natural Harmonic
#(#) = Trill
**   = Artificial Harmonic
x    = Dead notes (no pitch)
P.M. = Palm mute (- -> underneath indicates which notes)
(\)  = Dive w\bar
(/)  = Release w\bar
Tp   = Tap w\plectrum



Rhythm Fig. 1

G|--------------------------------------------------------------|
D|--------------------------------------------------------------|
A|--5--5--5-5-5--5-5-5-5--5-5--5--5--5-5-5--5-5-5-5--3-3--------|
E|--------------------------------------------------------------|



Rhythm Fig. 2

G|--------------------------------------------------------------|
D|--------------------------------------------------------------|
A|--5--5--5-5-5--5-5-5-5--5-5--5--5--5-5-5--5-5-5-5--3-3--------|
E|--------------------------------------------------------------|



G|--------------------------------------------------------------|
D|--------------------------------------------------------------|
A|--5--5--5-5-5--8--8--8-8-8--3--3----3----3---x-3--------------|
E|--------------------------------------------------------------|



G|--------------------------------------------------------------|
D|--------------------------------------------------------------|
A|--5--5--5-5-5--5-5-5-5--3-3--5--5--5-5-5--5-5-5-5--3-3--------|
E|--------------------------------------------------------------|



G|--------------------------------------------------------------|
D|--------------------------------------------------------------|
A|--5--5--5-5-5--8--8--8-8-8--3--3----3/-5----------------------|
E|--------------------------------------------------------------|



Rhythm Fig. 3

G|--------------------------------------------------------------|
D|--------------------------------------------------------------|
A|--------------------------------------------------------------|
E|--3--3--3--3--3--3--3--3--3--3--3--3--3--3--3--3--------------|


End 1

G|-------------------------------------5------------------------|
D|-------5h7---5h7---5h7---5h7---5h7----------------------------|
A|--0-----------------------------------------------------------|
E|--------------------------------------------------------------|


End 2

G|--------------------------------------------------------------|
D|------------5h7---5h7---------7-5-----------------------------|
A|--0----0-----------------0--------7-5--3----------------------|
E|--------------------------------------------------------------|



Rhythm Fig. 4a

G|--------------------------------------------------------------|
D|----------------------------------------3---------------------|
A|--3--5--5--5-5--5-5--3--5--5-5--5-3--5-----5---5--5-5--5-5--5-|
E|--------------------------------------------------------------|



G|--------------------------------------------------------------|
D|--------------------------------------------------------------|
A|--10--10--10-10--10-10--10-10--10-10--10-10--10-10\-----------|
E|--------------------------------------------------------------|



G|--------------------------------------------------------------|
D|----------------5h7-5h7-5h7-----------------------------------|
A|-----0--3b-0--------------------------------------------------|
E|--3b----------------------------------------------------------|



Rhythm Fig. 4b

G|--------------------------------------------------------------|
D|----------------------------------------3---------------------|
A|--3--5--5--5-5--5-5--3--5--5-5--5-3--5-----5---5--5-5--5-5--5-|
E|--------------------------------------------------------------|



G|--------------------------------------------------------------|
D|--------------------------------------------------------------|
A|--10--10--10-10--10-10--10-8--8-8--8-8--8-8\------------------|
E|--------------------------------------------------------------|


End 1

G|---------------5-5-5------------------------------------------|
D|--------------------------------------------------------------|
A|--3-----------------------------------------------------------|
E|--------------------------------------------------------------|



End 2

G|--------------------------------------------------------------|
D|--------------------------------------------------------------|
A|--3------------3----------------------------------------------|
E|--------------------------------------------------------------|



End 3

G|--------------------------------------------------------------|
D|--------------------------------------------------------------|
A|--3--3--3-3--3-3--3-3--3-3--3-3--3-3--------------------------|
E|--------------------------------------------------------------|



Rhythm Fig. 5

G|--------------------------------------------------------------|
D|--------------------------------------------------------------|
A|--5--5--5-5-5--5-5-5--3--3--5--5--5-5-5--5-5-5-5--5-5---------|
E|--------------------------------------------------------------|



Rhythm Fig. 6

G|--------------------------------------------------------------|
D|----------------------------------------------5---------------|
A|--7------------------5---7------------------5-----------------|
E|-------0----0----5h7----------0----0----5h7-------------------|
   < - - - - 2x - - - - >


G|--------------------------------------------------------------|
D|--------------------------------------------------------------|
A|--7------------------5----------------------------------------|
E|-------0----0----5h7------------------------------------------|



Rhythm Fig. 7

G|--------------------------------------------------------------|
D|--------------------------------------------------------------|
A|--------------------------------------------------------------|
E|--3--3--3--3--1--1--1--1--3--3--3--3--1--1--1--1--------------|



G|--------------------------------------------------------------|
D|--5h7---5h7---5h7--5-----5---5h7---5h7------------------------|
A|---------------------5h7---7-------------3--------------------|
E|--------------------------------------------------------------|



Rhythm Fig. 8

G|--------------------------------------------------------------|
D|--------------------------------------------------------------|
A|--3--5------4--5------3--5------2--3----5---------------------|
E|--------------------------------------------------------------|
  development and support by
dmitry ivanov