rock
 
|tablatures   |lyrics   |discussion forums   |more tabs @ XGuitar.com

Kiss tabs

Burn Bitch Burn bass tab

BURN BITCH BURN (from the KISS CD "ANIMALIZE")
--------------------

Transcribed by Emil Ortenmark, emil@kissasylum.com

Tuned down 1/2-step


Key:
/    = slide up
\    = slide down
b    = bend (whole step)
b^   = bend (1/2 step)
b^^  = bend (1 1/2 steps)
pb   = pre-bend
r    = release-bend
t    = tap with righthand finger
h    = hammer-on
p    = pull-off
~    = Vibrato
*    = Natural Harmonic
#(#) = Trill
**   = Artificial Harmonic
x    = Dead notes (no pitch)
P.M. = Palm mute (- -> underneath indicates which notes)
(\)  = Dive w\bar
(/)  = Release w\bar
Tp   = Tap w\plectrum





Rhythm Fig. 1a

Gb|--------------------------------------------------------|
Db|--------------------------------------------------------|
Ab|--------0------0-----0-----------0---------5------------|
Eb|--0-2-3----------3-3---3---0-2-3------------------------|



Rhythm Fig. 1b

Gb|--------------------------------------------------------|
Db|--------------------------------------------------------|
Ab|--------0------0-----0-----------0----------------------|
Eb|--0-2-3----------3-3---3---0-2-3------------------------|



Rhythm Fig. 1c

Gb|--------------------------------------------------------|
Db|--------------------------------------------------------|
Ab|--------0------0-----0-----------0------0-0-0-0-0-0-----|
Eb|--0-2-3----------3-3---3---0-2-3--------------------0---|



Rhythm Fig. 2

Gb|--------------------------------------------------------|
Db|--------------------------------------------------------|
Ab|--------------------------------------------------------|
Eb|--0-2-2-2-2-2-2-2---0-1-2-3-----------------------------|
     < - - - 3x - - >


Rhythm Fig. 3a

Gb|--------------------------------------------------------|
Db|--------------------------------------------------------|
Ab|--------------------------------------------------------|
Eb|--3--3--3--3--3--3--3--3--2b^--2b^--0-------------------|



Rhythm Fig. 3b

Gb|--------------------------------------------------------|
Db|--------------------------------------------------------|
Ab|--------------------------------------------------------|
Eb|--3--3--3--3--3--3--3--3--2b^--2b^--0----0--------------|



Rhythm Fig. 4

Gb|--------------------------------------------------------|
Db|--------------------------------------------------------|
Ab|--------------------------------------------------------|
Eb|--3-5---5----3-5---5----5-3---3--3--3--3--3--3----------|



Rhythm Fig. 5a

Gb|--------------------------------------------------------|
Db|--------------------------------------------------------|
Ab|------------------------------5--5----------------------|
Eb|--3-5---5----3-5---5----5-3---------0-0---2--3----------|



Rhythm Fig. 5b

Gb|--------------------------------------------------------|
Db|--------------------------------------------------------|
Ab|------------------------------5--5--5-------------------|
Eb|--3-5---5----3-5---5----5-3-----------0--0-2--3---------|



Rhythm Fig. 6

Gb|--------------------------------------------------------|
Db|--------------------------------------------------------|
Ab|--------------------------------------------------------|
Eb|--3-5---5----3-5---5----5-3---0-------------------------|



Riff 1

Gb|--------------------------------------------------------|
Db|--------------------------------------------------------|
Ab|--------------------------------------------------------|
Eb|--15\---------------------------------------------------|
  development and support by
dmitry ivanov