rock
 
|tablatures   |lyrics   |discussion forums   |more tabs @ XGuitar.com

Kiss tabs

Betrayed guitar tab

BETRAYED (from the KISS CD "HOT IN THE SHADE")
--------------------

Transcribed by Emil Ortenmark, emil@kissasylum.com

Standard tuning

Comments: Just two things here. First, at the very end of the solo. I
have no idea what the correct notes are, all I hear is a barrage of
notes underneath a wall off noise. I?ve put down a little something that
Bruce usually plays here and there. The final phrase is correct. Second,
the same thing happens during the outro solo. I have about a snowball?s
chance in hell of transcribing about halfway through so I just let it be.
(I wish they would have remastered this album along with the others. It
is by far the worst-sounding KISS album ever. Gene and Paul are not
producers, that?s for sure.)

Key:
/    = slide up
\    = slide down
b    = bend (whole step)
b^   = bend (1/2 step)
b^^  = bend (1 1/2 steps)
pb   = pre-bend
r    = release-bend
t    = tap with righthand finger
h    = hammer-on
p    = pull-off
~    = Vibrato
*    = Natural Harmonic
#(#) = Trill
**   = Artificial Harmonic
x    = Dead notes (no pitch)
P.M. = Palm mute (- -> underneath indicates which notes)
(\)  = Dive w\bar
(/)  = Release w\bar
Tp   = Tap w\plectrum



Rhythm Fig. 1

E|--------------------------------------------------|
B|--------------------------------------------------|
G|--2----2----2--2--2-------2---------2-------------|
D|--2----2----2--2--2-------2---------2----3--------|
A|--0----0----0--0--0-------0----3~---0----3--------|
E|---------------------3~------------------1--------|



E|--------------------------------------------------|
B|--------------------------------------------------|
G|-----------------3---------3---------2------------|
D|--3--------------3----3----3----3----2------------|
A|--3--------------1----3----1----3----0------------|
E|--1-------------------1---------1-----------------|



Rhythm Fig. 2

E|--------------------------------------------------|
B|--------------------------------------------------|
G|--2----2----2--2--2-------2---------2-------------|
D|--2----2----2--2--2-------2---------2-------------|
A|--0----0----0--0--0-------0----3~---0-------------|
E|---------------------3~---------------------------|



E|--------------------------------------------------|
B|--------------------------3-----------------------|
G|----------------5---------0-----------------------|
D|--3-------------5---------0-----------------------|
A|--3-------------3---------x-----------------------|
E|--1-----------------------3-----------------------|



Rhythm Fig. 3

E|--------------------------------------------------|
B|--------------------------------------------------|
G|--2----2----2--2--2-------2---------2-------------|
D|--2----2----2--2--2-------2---------2-------------|
A|--0----0----0--0--0-------0----3~---0-------------|
E|---------------------3~---------------------------|



E|--------------------------------------------------|
B|---------------------------------3----------------|
G|---------------------5--5--5--5--0----------------|
D|--3------------------5--5--5--5--0----------------|
A|--3------------------3--3--3--3--x----------------|
E|--1------------------------------3----------------|



Rhythm Fig. 4

E|--------------------------------------------------|
B|--------------------------------------------------|
G|--2----2----2----2--2--2-------2---------2--------|
D|--2----2----2----2--2--2-------2---------2----3---|
A|--0----0----0----0--0--0-------0----3~---0----3---|
E|--------------------------3~------------------1---|




E|--------------------------------------------------|
B|-----------------3--------------------------------|
G|-----------------0--------------------------------|
D|--3--------------0--------------------------------|
A|--3--------------x--------------------------------|
E|--1--------------3--------------------------------|



Rhythm Fig. 5

E|--------------------------------------------------|
B|--------------------------------------------------|
G|--2---2---2---2---2---2---2---2---2---2---2---2---|
D|--2---2---2---2---2---2---2---2---2---2---2---2---|
A|--0---0---0---0---0---0---0---0---0---0---0---0---|
E|--------------------------------------------------|



E|--------------------------------------------------|
B|-----------------3--------------------------------|
G|-----------------0--------------------------------|
D|--3--------------0--------------------------------|
A|--3--------------x--------------------------------|
E|--1--------------3--------------------------------|



Rhythm Fig. 6

E|-------0------------------------------------------|
B|-------0----------3---------------3----3----------|
G|------------------0----------2----0----0----------|
D|--2---------------0-----2----2----x----x----------|
A|--2---------------------2----0----2----3----------|
E|--0-----------------------------------------------|



E|------3---------------------3----2----------------|
B|------3----------3----------3----3----------------|
G|------0----------0--------------------------------|
D|-----------------x--------------------------------|
A|-----------------3--------------------------------|
E|--------------------------------------------------|



Rhythm Fig. 7

E|-------0------------------------------------------|
B|-------0----------3---------------3----3----------|
G|------------------0----------2----0----0----------|
D|--2---------------0-----2----2----x----x----------|
A|--2---------------------2----0----2----3----------|
E|--0-----------------------------------------------|




E|------3-------------------3-----------------------|
B|------3----------3--------3-----------------------|
G|------0----------0--------0-----------------------|
D|-----------------x--------------------------------|
A|-----------------2--------------------------------|
E|---------------------------------3--2-------------|



Rhythm Fig. 8

E|-------0------------------------------------------|
B|-------0----------3---------------3----3----------|
G|------------------0----------2----0----0----------|
D|--2---------------0-----2----2----x----x----------|
A|--2---------------------2----0----2----3----------|
E|--0-----------------------------------------------|



E|------3-------------------------------------------|
B|------3----------3------3--3--3-------------------|
G|------0----------0------0--0--2-------------------|
D|-----------------0------x--x--0-------------------|
A|-----------------x------2--3----------------------|
E|-----------------3--------------------------------|



Rhythm Fig. 9

E|--------------------------------------------------|
B|--------------------------------------------------|
G|--7/-9----9----------7/-9----12----11----10-------|
D|--7/-9----9----------7/-9----12----11----10-------|
A|--5/-7----7----------5/-7----10----9-----8--------|
E|--------------------------------------------------|
   < - 3x - ->



Rhythm Fig. 10

E|--------------------------------------------------|
B|------10----10--8---------------------------------|
G|------9-----9---9------12----11----10-------------|
D|-----------------------12----11----10-------------|
A|--------------------------------------------------|
E|--------------------------------------------------|



E|--------------------------------------------------|
B|------10----10--8---------------------------------|
G|------9-----9---9------7/-9----12----11----10-----|
D|-----------------------7/-9----12----11----10-----|
A|-----------------------5/-7----10----9-----8------|
E|--------------------------------------------------|



Rhythm Fig. 11

E|--------------------------------------------------|
B|--------------------------------------------------|
G|--12----12----x--12----11------11----x--11----10--|
D|--12----12----x--12----11------11----x--11----10--|
A|--10----10----x--10----9-------9-----x--9-----8---|
E|--------------------------------------------------|



E|--------------------------------------------------|
B|--------------------------------------------------|
G|------10----x--10----9------9----x--9-------------|
D|------10----x--10----9------9----x--9-------------|
A|------8-----x--8-----7------7----x--7-------------|
E|--------------------------------------------------|



E|--------------------------------------------------|
B|--------------------------------------------------|
G|--12----12----x--12----11------11----x--11----10--|
D|--12----12----x--12----11------11----x--11----10--|
A|--10----10----x--10----9-------9-----x--9-----8---|
E|--------------------------------------------------|
   < - - - - - - - - - - - - - - - - - - - 2x - - - -


E|--------------------------------------------------|
B|--------------------------------------------------|
G|------10----x--10---------------------------------|
D|------10----x--10---------------------------------|
A|------8-----x--8-----7----5-----------------------|
E|-----------------------------7--6--5--3--0--------|
  - - - - - - - - - - - - - - - - - - - - - - - - ->


E|--------------------------------------------------|
B|--------------------------------------------------|
G|--12----12----x--12----11------11----x--11--------|
D|--12----12----x--12----11------11----x--11----3---|
A|--10----10----x--10----9-------9-----x--9-----3---|
E|----------------------------------------------1---|



E|--------------------------------------------------|
B|--------------------------------------------------|
G|--------------------------------------------------|
D|----3--3--3--3--3--3--3--3--3--3--3--3--3--3------|
A|----3--3--3--3--3--3--3--3--3--3--3--3--3--3------|
E|----1--1--1--1--1--1--1--1--1--1--1--1--1--1------|








Riff 1

E|--------------------------------------------------|
B|--------------------------------------------------|
G|--------------------------------------------------|
D|--------------------------------------------------|
A|--x\----------------------------------------------|
E|--x\----------------------------------------------|
  Pick scrape


Riff 2

E|--------------------------------------------------|
B|--10~---------------------------------------------|
G|--------------------------------------------------|
D|--------------------------------------------------|
A|--------------------------------------------------|
E|--------------------------------------------------|
                Feedback


Riff 3

E|--------------------------------------------------|
B|--------------------------------------------------|
G|---------------2b-r2--2b-r2-2b---2--0------5**~---|
D|--2(0)----2*---------------------------2----------|
A|--------------------------------------------------|
E|--------------------------------------------------|
                                                W/bar


E|--------------------------------------------------|
B|--------------------------------------------------|
G|--7**~------4**(\)--------------------------------|
D|--------------------------------------------------|
A|--------------------------------------------------|
E|--------------------------------------------------|
       W/bar

Riff 4

E|--------------------------------------------------|
B|--/12-12-12-13-12---------------------------------|
G|--/12-12-12-12-12---------------------------------|
D|--------------------------------------------------|
A|--------------------------------------------------|
E|--------------------------------------------------|



Solo

E|--------------------------------------------------|
B|--12-------14------15------17---17-17h20p17----17-|
G|--14b~-----16b~----17b~----19b--------------19----|
D|--------------------------------------------------|
A|--------------------------------------------------|
E|--------------------------------------------------|


E|----------------19---19----19h22p19----19-22b-r22-|
B|--20b^^-r20-----22b--22b~-----------22------------|
G|--------------------------------------------------|
D|--------------------------------------------------|
A|--------------------------------------------------|
E|--------------------------------------------------|




E|----22p19----19-19---19-19--19-19--19-19---19-22~-|
B|----------22----22b-----22b----22b----22b---------|
G|--------------------------------------------------|
D|--------------------------------------------------|
A|--------------------------------------------------|
E|--------------------------------------------------|




E|--------------------------------------------------|
B|--12--11-----11--10-----10--8---------------------|
G|--14b-13b~---13b-12b~---12b-10b~------------------|
D|--------------------------------------------------|
A|--------------------------------------------------|
E|--------------------------------------------------|




E|--------------------------------------------------|
B|--12-------12--11------11-10----------------17----|
G|--14b~-----14b-13b~----13-12b~-----------17-------|
D|-----------------------------------17h19----------|
A|--------------------------------------------------|
E|--------------------------------------------------|




E|-----------------17h20p17~--------------17h20p17~-|
B|-----------17h20------------------17h20-----------|
G|--19p17-19------------------17h19-----------------|
D|--------------------------------------------------|
A|--------------------------------------------------|
E|--------------------------------------------------|



Outro solo

E|--------------------------------------------------|
B|--17----20-17-20p17~------------------------------|
G|--19b~------------------17------------------------|
D|---------------------------19-17-19-17------------|
A|---------------------------------------19-18-17---|
E|--------------------------------------------------|




E|--------------------------------------------------|
B|----------------15b-15b~--------------------------|
G|----------------------------7b-r7-7b~-------------|
D|--------------------------------------------------|
A|--15-17~------------------------------------------|
E|--------------------------------------------------|
                                      Hold bend - - -



E|--------------------------------------------------|
B|--------------------------------------------------|
G|--t12---p7-r7p5-t12p7p5-t12p7p5-------------------|
D|--------------------------------7~----------------|
A|--------------------------------------------------|
E|--------------------------------------------------|
 - - ->
  development and support by
dmitry ivanov