rock
 
|tablatures   |lyrics   |discussion forums   |more tabs @ XGuitar.com

Kiss tabs

Beth (MTV Unplugged) bass tab

BETH (from the KISS-LP "KISS MTV UNPLUGGED")
----

Bass tabs transcribed by 
Johan Linden (johan.linden@mbox304.swipnet.se)

Eb Tuning

Fig. 1
Gb|--------------7-5-----------------------------------|
Db|---------7-5----------------------------------------|
Ab|--3----3-----------7-5----5h^7----------------------|
Eb|-------------------------------3--------------------|

Gb|------------5h^7------------------------------------|
Db|-----------------5----5h^7--------------------------|
Ab|--0-2--3-------------------5------5h^7--------------|
Eb|---------------------------------------3------------|

Fig. 2
Gb|----------------------------------------------------|
Db|----------------------------------------------------|
Ab|--3----5----7---0-----------------3---3-5-7-7-------|
Eb|---------------------3----1---3--------------0-0----|

Fig. 3
Gb|----------------------------------------------------|
Db|----------------------------------------------------|
Ab|--0---------------5--7-8--10-12------0-----------3--|
Eb|------3---1---0------------------------3--1--3------|

Fig. 4
Gb|----------------------------------------------------|
Db|------------------------------------14--------------|
Ab|---0---------------5--7-8-10--12-15----12-15--------|
Eb|-------3---1---0------------------------------------|

Gb|----------------------------------------------------|
Db|----------------------------------------------------|
Ab|---0-----------3------------------------------------|
Eb|-----3--1--3----------------------------------------|

Fig. 5
Gb|-------5h^7-----------------------------------------|
Db|------------5-5--5h^7-------------------3-2---------|
Ab|-3---3----------------5--5h^7---------3-------------|
Eb|------------------------------3---------------------|

Gb|----------------7-5---------------------------------|
Db|------------3-2------5h^7---------------------------|
Ab|---3-----3----------------5---5-7-7-----------------|
Eb|------------------------------------0-0-------------|

Fig. 6
Gb|----------------------------------------------------|
Db|----------------------------------------------------|
Ab|--3----5----7---0-----------------------------------|
Eb|---------------------3----1---3---------------------|

Fig. 7
Gb|-------------7-5------------------------------------|
Db|---------3-2-----5h^7-----------------3-2-----------|
Ab|---3---3--------------5-5-5h^7------3---------------|
Eb|-------------------------------3--------------------|

Gb|-------------7-5------------------------------------|
Db|---------3-2-----5h^7-------------------------------|
Ab|---3---3--------------5---5h^7------0-2----3--------|
Eb|-------------------------------3--------------------|

BETH - Peter Criss, Stan Penridge, Bob Ezrin

[Fig. 1]

[Fig. 2]
Beth, I hear you callin' 
But I can't come home right now 
Me and the boys are playin' 
But we just can't find the sound 

[Fig. 3]
Just a few more hours 
And I'll be right home to you 
I think I hear them callin' 
Oh, Beth what can I do 
Beth what can I do 

[Fig. 2]
You say you feel so empty 
That our house just ain't a home 
I'm always somewhere else 
While you're always there alone 

[Fig. 4]
Just a few more hours 
And I'll be right home to you 
I think I hear them callin' 
Oh, Beth what can I do 
Beth what can I do 

[Fig. 5]
[Fig. 3] w/[Solo]

[Fig. 6]
Beth, I know you're lonely 
And I hope you'll be alright 
'Cause me and the boys will be playin' 
All night 

[Fig. 7]
  development and support by
dmitry ivanov