rock
 
|tablatures   |lyrics   |discussion forums   |more tabs @ XGuitar.com

Kiss tabs

Bang Bang You bass tab

BANG BANG YOU (from the KISS CD "CRAZY NIGHTS")
--------------------

Transcribed by Emil Ortenmark, emil@kissasylum.com

Standard tuning


Key:
/    = slide up
\    = slide down
b    = bend (whole step)
b^   = bend (1/2 step)
b^^  = bend (1 1/2 steps)
pb   = pre-bend
r    = release-bend
t    = tap with righthand finger
h    = hammer-on
p    = pull-off
~    = Vibrato
*    = Natural Harmonic
#(#) = Trill
**   = Artificial Harmonic
x    = Dead notes (no pitch)
P.M. = Palm mute (- -> underneath indicates which notes)
(\)  = Dive w\bar
(/)  = Release w\bar
Tp   = Tap w\plectrum





Rhythm Fig. 1

G|-----------------------------------------------|
D|-----------------------------------------------|
A|--2/-------------0-----0------------0----------|
E|--------------------------4----2---------------|



Rhythm Fig. 2

G|-----------------------------------------------|
D|-----------------------------------------------|
A|--2--------------0-----0------------0----------|
E|--------------------------4----2---------------|



Rhythm Fig. 3

G|-----------------------------------------------|
D|-----------------------------------------------|
A|--2---/14\---------0-----0------------0--------|
E|----------------------------4----2-------------|



Rhythm Fig. 4

G|-----------------------------------------------|
D|----------------/7-----7--6----4---------------|
A|--2----------------------------------0---------|
E|----------------------------------2------------|



Rhythm Fig. 5

G|-----------------------------------------------|
D|-----------------------------------------------|
A|--2--------------0-----0-------------0--2------|
E|--------------------------4----2--2------------|



Rhythm Fig. 6

G|-----------------------------------------------|
D|--0----------0----------0----------------------|
A|-------2--2-------2--2-----2--0--2------2------|
E|-----------------------------------------------|



G|-----------------------------------------------|
D|-------0--2--2b^-r2-0----0---------------------|
A|----2-----------------2-----2--0--2------2-----|
E|-----------------------------------------------|



G|-----------------------------------------------|
D|--0----------0----------0----------------------|
A|-------2--2-------2--2-----2--0--2------2/-12\-|
E|-----------------------------------------------|



Rhythm Fig. 7

G|-----------------------------------------------|
D|-----------------------------------------------|
A|----------------------0--0--0--0--0--0--0--0---|
E|--3----3----3----3-----------------------------|





Rhythm Fig. 8

G|-----------------------------------------------|
D|-----------------------------------------------|
A|----5--5----5--4--5--7-------------------------|
E|-----------------------------0----0----0-------|


Rhythm Fig. 9

G|-----------------------------------------------|
D|-----------------------------------------------|
A|-----------------------------------------------|
E|--0----0----0----0----0----0----0----0---------|



Rhythm Fig. 10

G|-----------------------------------------------|
D|-----------------------------------------------|
A|-----5--5----5--4--5--7------------------------|
E|--0---------------------------0----0----0------|



Rhythm Fig. 11

G|-----------------------------------------------|
D|-----------------------------------------------|
A|----------------------0--0--0--0--0--0--0------|
E|--3----3----3----3------------------------0----|



Rhythm Fig. 12

G|-----------------------------------------------|
D|-----------------------------------------------|
A|--2-----------------------0--------------------|
E|-------------------------------0---------------|


Rhythm Fig. 13

G|-----------------------------------------------|
D|-----------------------------------------------|
A|--2----2----2----2----2----2--0----------------|
E|-----------------------------------0-----------|
   < - - - 3x - - - >



Rhythm Fig. 14

G|-----------------------------------------------|
D|-----------------------------------------------|
A|--2-----------------2--------------------------|
E|-----------------------------------------------|
  development and support by
dmitry ivanov