rock
 
|tablatures   |lyrics   |discussion forums   |more tabs @ XGuitar.com

Kiss tabs

Anything For My Baby guitar tab

Anything For My Baby by KISS
From the album Dressed To Kill
--------------------------------------------------------------------



     guitar 1
e:---------------------------------------------------|
B:---------------------------------------------------|
G:---------------------------------------------------|
D:---9-9-9-9---11/13--11~-----9-9-9-9---11/13--11~---|
A:---7-7-7-7---9-/11--9-~-----7-7-7-7---9-/11--9-~---|
E:---0-0-0-0------------------0-0-0-0----------------|


                                               

  guitar 2
e:--------------------------------------------|
B:-------------11-12-11--------------11-12-11-|
G:-------------11-11-11--------------11-11-11-|
D:---9-9-9-9---11-11-11----9-9-9-9---11-11-11-|
A:---7-7-7-7---9--9--9-----7-7-7-7---9--9--9--|
E:---0-0-0-0---------------0-0-0-0------------|




                         "I'm in love..."         guitar 2 plays similar patt
e:---------------------------------------------------------------------------|
B:---------------------------------------------0-----1/0/1/0-----------3/2/3/|
G:---4-4-4~---4-4---4-4-4~---------4---4-4-----0-----0/0/0/0-----2--2--2/2/2/|
D:---4-4-4~---2-2---4-4-4~---------4---4-4-----0-----2/0/2/0-----2--2--2/2/2/|
A:---2-2-2~---------2-2-2~---------2---2-2-----------------------0--0--------|
E:---------------------------------------------3--3--------------------------|




  ern 1 octave higher                           repeat-to chorus
e:-----------------------------------------------------------------------|
B:2----0----1/0/1/0-----------3/2/3/2----0-----1---------------5-5/4-----|
G:2----0----0/0/0/0----2--2---2/2/2/2----0-----0-------2---4---4-4/4--4~-|
D:2----0----2/0/2/0----2--2---2/2/2/2----0-----2-------2---4---4-4/4--4~-|
A:---------------------0--0------------------------3/4-----2---2-2/2--2~-|
E:-----3--3------------------------------3--3--3-------------------------|




    "That I would..."
e:---------------------------------------------------------------------------|
B:---------------------------------------------------------------------------|
G:---4/4--4-4-4-4-----9-9-------------------4/4--4-4-4-4----9-9--------------|
D:---4/4--4-4-4-4-----9-9--9--11/13--11-----4/4--4-4-4-4----9-9-----11/13--11|
A:---0/2--2-2-2-2-----7-7--9--9-/11--9------0/2--2-2-2-2----7-7--9--9-/11--9-|
E:-------------------------7-------------------------------------7-----------|


                                                            

                    to verses            repeat and fade out
e:----------------------------------|-----------------------|
B:----------------------------------|-----------------------|
G:--------------------------4-4-4~--|-----------------------|
D:----9-9-9-9---11/13--11---4-4-4~--|-----------------------|
A:----7-7-7-7---9-/11--9----2-2-2~--|-----------------------|
E:----------------------------------|-----------------------|


  development and support by
dmitry ivanov