rock
 
|tablatures   |lyrics   |discussion forums   |more tabs @ XGuitar.com

Kiss tabs

Almost Human guitar tab

Almost Human by KISS
From the album Love Gun
--------------------------------------------------------------------



  intro  guitar 1
e:--------------------------------------------------------|
B:--------------------------------------------------------|
G:--------------------------------------------------------|
D:----------5/7-5/7------7-5--5-------5/7-5/7--7-5--------|
A:---0~---0----------5-7-------0~---0--------------7-5-3--|
E:--------------------------------------------------------|


                                                     

   intro guitar 2
e:--------------------------------------------------|
B:--------------------------------------------------|
G:--------------------------------------------------|
D:--9/10-9/10--9-10-12-10---9/10-9/10--9/10---------|
A:------------------------------------------10-9-7--|
E:--------------------------------------------------|




   "Your so smooth.."
e:---------------------------------------------------------------------------|
B:---------------------------------------------------------------------------|
G:---5---5---5---5-5-5-----7---7---7-7-7---7-7-7-----5---5--5---5-5-5---4-4-4|
D:---5---3---5---5-3-5-----7---5---7-5-7---7-5-7-----5---3--5---5-3-5---4-4-4|
A:---3-------3---3---3-----5-------5---5---5---5-----3------3---3---3---2-2-2|
E:---------------------------------------------------------------------------|


                                         

        before solo
e:---|-----------------------------------|
B:---|-----------------------------------|
G:---|---------------5~----4~----3~----2~|
D:---|---7--5--------5~----4~----3~----2~|
A:---|---------7--5--3~----2~----1~----0~|
E:---|-----------------------------------|


  development and support by
dmitry ivanov