rock
 
|tablatures   |lyrics   |discussion forums   |more tabs @ XGuitar.com

Kiss tabs

All Hell's Breakin' Loose bass tab

ALL HELL•S BREAKIN• LOOSE (from the KISS CD "LICK IT UP")
--------------------

Transcribed by Emil Ortenmark, emil@kissasylum.com

Standard tuning

Comments: I really like the bass playing on this track. It is rock-steady
but also melodic at times. During the choruses Gene, and this is Gene,
believe me, stretches out a little every other bar (a time-tested technique)
with simple yet cool fills. Also, dig how he uses these fills in the first
chorus (and variants of it later) to gradually build the line•s intensity by
climbing the G-minor scale.


Key:
/    = slide up
\    = slide down
b    = bend (whole step)
b^   = bend (1/2 step)
b^^  = bend (1 1/2 steps)
pb   = pre-bend
r    = release-bend
t    = tap with righthand finger
h    = hammer-on
p    = pull-off
~    = Vibrato
*    = Natural Harmonic
#(#) = Trill
**   = Artificial Harmonic
x    = Dead notes (no pitch)
P.M. = Palm mute (- -> underneath indicates which notes)
(\)  = Dive w\bar
(/)  = Release w\bar
Tp   = Tap w\plectrum






Rhythm Fig. 1

G|---------------------------------------------------------|
D|---------------------------------------------------------|
A|-----------------------------------1---------------------|
E|--3\-------------1--3\-----------------------------------|




G|------------------------------------10h12\---------------|
D|------------------------------10h12----------------------|
A|---------------------------------------------------------|
E|--3/------------1-3\--------------------------1h2--------|



Rhythm Fig. 2

G|---------------------------------------------------------|
D|---------------------------------------------------------|
A|---------------------------------------------------------|
E|--3--3--3--3--3--3--3--3--3--3--3--3--3-0---1--1h2-------|



G|---------------------------------------------------------|
D|---------------------------------------------------------|
A|-----------------------------------------1--0------------|
E|--3--3--3--3--3--3--3--3--3--3--3--3--3--------1h2-------|



G|---------------------------------------------------------|
D|---------------------------------------------------------|
A|---------------------------------------------------------|
E|--3--3--3--3--3--3--3--3--3--3--3--3--3--0--1--2---------|



Rhythm Fig. 3

G|---------------------------------------------------------|
D|---------------------------------------------------------|
A|--3---1--------------3-----------------------------------|
E|-------------------------3\------------------------------|



G|---------------------------------------------------------|
D|---------------------------------------------------------|
A|--3---1--------------3-----------------------------------|
E|-------------------------3\------0--1--3-----------------|



Rhythm Fig. 4

G|---------------------------------------------------------|
D|---------------------------------------------------------|
A|--3---1---0--1---------3---------------------------------|
E|------------------3--------3---1--3----1-----------------|



G|---------------------------------------------------------|
D|---------------------------------------------------------|
A|--3---1---0--1---------3---------------------------------|
E|------------------3--------3---1--3--0--1--3-------------|


Rhythm Fig. 5

G|---------------------------------------------------------|
D|----------5-5-5-----------------3--3---------------------|
A|---------------------------------------------------------|
E|--4---3--------------3--4---3---------0--1--3------------|



G|---------------------------------------------------------|
D|---------------------------------------------------------|
A|----------3--3------0--1---------------------------------|
E|--4---3-----------------------------0h-1-----------------|
                                     Don•t play third time


Rhythm Fig. 6

G|---------------------------------------------------------|
D|----------5--5------------------3--3---------------------|
A|---------------------------------------------------------|
E|--4---3--------------3--4---3---------0--1--3------------|



G|---------------------------------------------------------|
D|-------------------------------3--3----------------------|
A|----------3--3-------------------------------------------|
E|--4---3-------------3--4---3---------0--1--3-------------|



Rhythm Fig. 7

G|---------------------------------------------------------|
D|---------------------------------------------------------|
A|-----------------------------------------1--0------------|
E|--3--3--3--3--3--3--3--3--3--3--3--3--3-------3-1--------|



G|---------------------------------------------------------|
D|---------------------------------------------------------|
A|-----------------------------------------1--0-1p0--------|
E|--3--3--3--3--3--3--3--3--3--3--3--3--3-----------1------|



G|---------------------------------------------------------|
D|--------------------------------------------3-0----------|
A|------------------------------------------------1--------|
E|--3--3--3--3--3--3--3--3--3--3--3--3--3--3-------(1)-----|



G|---------------------------------------------------------|
D|---------------------------------------------------------|
A|---------------------------------------------------------|
E|--3--3--3--3--3--3--3--3--3--3--3--3--3-0---1--1h2-------|



G|---------------------------------------------------------|
D|---------------------------------------------------------|
A|---------------------------------------------------------|
E|--3-------------------------3-3--0--1--2-----------------|



Rhythm Fig. 8

G|---------------------------------------------------------|
D|---------------------------------------------------------|
A|-----------------------------------------0--1-0----------|
E|--3--3--3--3--3--3--3--3--3--3--3--3--3---------1--------|



G|---------------------------------------------------------|
D|---------------------------------------------------------|
A|-----------------------------------------1--3-1----------|
E|--3--3--3--3--3--3--3--3--3--3--3--3--3---------1--------|



G|---------------------------------------------------------|
D|--------------------------------------------3-0----------|
A|-----------------------------------------1------1--------|
E|--3--3--3--3--3--3--3--3--3--3--3--3--3----------(1)-----|



G|---------------------------------------------------------|
D|---------------------------------------------------------|
A|---------------------------------------------------------|
E|--3--3--3--3--3--3--3--3--3--3--3--3--3--0--1--2---------|



Rhythm Fig. 9

G|---------------------------------------------------------|
D|---------------------------------------------------------|
A|---------------------------------------------------------|
E|--3--3--3--3--3--3--3--3--3--3--3--3--3--0--1--2---------|




Rhythm Fig. 10

G|---------------------------------------------------------|
D|---------------------------------------------------------|
A|---------------------------------------------------------|
E|--3------------------------------1-----------------------|



G|---------------------------------------------------------|
D|---------------------------------------------------------|
A|---------------------------------------------------------|
E|--3--------------1----3---------------------3--0--1--2---|



Rhythm Fig. 11

G|---------------------------------------------------------|
D|---------------------------------------------------------|
A|--------------------------------------------1-0----------|
E|--3--3--3--3--3--3--3--3--3--3--3--3--3--3------1--------|



G|---------------------------------------------------------|
D|---------------------------------------------------------|
A|--------------------------------------------3-1----------|
E|--3--3--3--3--3--3--3--3--3--3--3--3--3--3------1--------|



G|---------------------------------------------------------|
D|--------------------------------------------3-0----------|
A|------------------------------------------------1--------|
E|--3--3--3--3--3--3--3--3--3--3--3--3--3--3---------------|



G|----------------------------------------------10h12------|
D|------------------------------------------8h10------8h10-|
A|--------------------------------------8h10---------------|
E|--3--3--3--3--3--3--3--3--3--3--3--3/--------------------|



G|---------------------------------------------------------|
D|---------------------------------------------------------|
A|-----------------------------------------0--1-0-1p0------|
E|--3--3--3--3--3--3--3--3--3--3--3--3--3------------------|



G|---------------------------------------------------------|
D|---------------------------------------------------------|
A|--------------------------------------0--1-3-1-0---------|
E|--3--3--3--3--3--3--3--3--3--3--3--3-------------1-------|



G|---------------------------------------------------------|
D|---------------------------------------------------------|
A|---------------------------------------------------------|
E|--3--3--3--3--3--3--3--3--3--3--3--3--0-1---1-2----------|



G|--------------------------------------12-----12----------|
D|-----------------------------------------12-----12-------|
A|----------------------------------------------------10\--|
E|--3--3--3--3--3--3--3--3--3--3--3--3/--------------------|




G|---------------------------------------------------------|
D|---------------------------------------------------------|
A|---------------------------------------------------------|
E|--3--3--3--3--3--3--3--3--3--3--3--3--0-1---1-2----------|
  development and support by
dmitry ivanov