rock
 
|tablatures   |lyrics   |discussion forums   |more tabs @ XGuitar.com

Kiss tabs

Ain't Quite Right bass tab

AIN'T QUITE RIGHT (from the KISS CD "PAUL STANLEY")
--------------------

Transcribed by Emil Ortenmark, emil@kissasylum.com

Tuned down 1/2-step

Comments: I'm guessing Paul played this. It has a certain simplicity and use
of root-fifth movements that remind of Ace's bass playing though.


Key:
/    = slide up
\    = slide down
b    = bend (whole step)
b^   = bend (1/2 step)
b^^  = bend (1 1/2 steps)
pb   = pre-bend
r    = release-bend
t    = tap with righthand finger
h    = hammer-on
p    = pull-off
~    = Vibrato
*    = Natural Harmonic
#(#) = Trill
**   = Artificial Harmonic
x    = Dead notes (no pitch)
P.M. = Palm mute (- -> underneath indicates which notes)
(\)  = Dive w\bar
(/)  = Release w\bar
Tp   = Tap w\plectrum




Rhythm Fig. 1

Gb|----------------------------------------------|
Db|---------------------7------------------------|
Ab|--5--------3----------------------------------|
Eb|----------------------------------------------|



Gb|----------------------------------------------|
Db|----------------------------------------------|
Ab|--3------2-----------5------7------3----------|
Eb|----------------------------------------------|



Rhythm Fig. 2

Gb|----------------------------------------------|
Db|-----7------------5---------------------------|
Ab|--------7---------------5--------3------------|
Eb|--5--------5----------------------------------|
     < - - - - 4x - - - >



Rhythm Fig. 3

Gb|----------------------------------------------|
Db|-----7------------5--------7------------------|
Ab|--------7---------------------7---------------|
Eb|--5--------5------------5--------5------------|



Gb|----------------------------------------------|
Db|----------------------------------------------|
Ab|--3------------------7--------5---------------|
Eb|---------3------------------------------------|



Rhythm Fig. 4

Gb|----------------------------------------------|
Db|----------------------------7\----------------|
Ab|----------------------5h-7---------5h-7-------|
Eb|--5-------------------------------------------|



Rhythm Fig. 5

Gb|----------------------------------------------|
Db|-----7------------5---------------------------|
Ab|--------7-------------------------------------|
Eb|--5--------5----------------------------------|




Rhythm Fig. 6

Gb|----------------------------------------------|
Db|----------------------------------------------|
Ab|----------------------------------------------|
Eb|--1----1----1---------3----3----3-------------|



Gb|----------------------------------------------|
Db|--7-------------------------------------------|
Ab|----------------/7----------------------------|
Eb|---------------------5------------------------|



Gb|----------------------------------------------|
Db|----------------------------------------------|
Ab|----------------------------------------------|
Eb|--1----1----1---------3----3----3-------------|



Gb|----------------------------------------------|
Db|-------------------------------5h-7--5--------|
Ab|--5-------------------5--6h-7-----------7-----|
Eb|----------------------------------------------|
  development and support by
dmitry ivanov