rock
 
|tablatures   |lyrics   |discussion forums   |more tabs @ XGuitar.com

Kiss tabs

A Million To One bass tab

A MILLION TO ONE (from the KISS album "LICK IT UP")
--------------------

Transcribed by Emil Ortenmark, emil@kissasylum.com

Standard tuning

Comments: Notes in parenthesis mean that these are only played the second
time the Rhy. Fig appears. And during the choruses, make sure to wave to
the crowd as you pump out eight-note E?s.

Key:
/    = slide up
\    = slide down
b    = bend (whole step)
b^   = bend (1/2 step)
b^^  = bend (1 1/2 steps)
pb   = pre-bend
r    = release-bend
t    = tap with righthand finger
h    = hammer-on
p    = pull-off
~    = Vibrato
*    = Natural Harmonic
#(#) = Trill
**   = Artificial Harmonic
x    = Dead notes (no pitch)
P.M. = Palm mute (- -> underneath indicates which notes)
(\)  = Dive w\bar
(/)  = Release w\bar
Tp   = Tap w\plectrum


Rhythm Fig. 1

G|-----------------------------------------------|
D|-----------------------------------------------|
A|---------------------3--3------5--5\-----------|
E|--0--0-----------------------------------------|



Rhythm Fig. 2

G|-----------------------------------------------|
D|-----------------------------------------------|
A|---------------------3--3------5---------------|
E|--0--0-----------------------------------------|



Rhythm Fig. 3

G|-----------------------------------------------|
D|-----------------------------------------------|
A|-----------------------------------------------|
E|--0--0--0--0--0--0--0--0-----------------------|



Rhythm Fig. 4

G|-----------------------------------------------|
D|-----------------------------------------------|
A|--3----3----2----------------------------------|
E|-----------------------------------------------|



Rhythm Fig. 5

G|-----------------------------------------------|
D|-----------------------------------------------|
A|-----------------5--3--2-----------------------|
E|--0--0--0--0--0--------------------------------|




Rhythm Fig. 6

G|-----------------------------------------------|
D|-----------------------------------------------|
A|--------------3--3--2--------------------------|
E|--0--0--0--0-----------3-----------------------|




Rhythm Fig. 7

G|-----------------------------------------------|
D|-----------------------------------------------|
A|-----------5---------2--------2--5-------------|
E|--0--------------------------------------------|



G|-----------------------------------------------|
D|-----------------------------------------------|
A|-----------3----5-------------5h7--5----(5\)---|
E|--0-------------------0--(5h7)-----------------|



G|-----------------------------------------------|
D|-----------------------------------------------|
A|--0------0-------0----3----2--0--5----------0--|
E|------------3-------------------------2--3-----|



G|-----------------------------------------------|
D|-----------------------------------------------|
A|--2------0----0-------2------------------------|
E|-----------------------------------------------|



Rhythm Fig. 8

G|-----------------------------------------------|
D|-----------------------------------------------|
A|--0--------------------------------------------|
E|--------------------0--0--0--0--0--0--0--3-----|
                     < - - 3x - >


G|-----------------------------------------------|
D|-----------------------------------------------|
A|--0-----------------------------5\----0--2-----|
E|--------------------2--2--2--2-----------------|



G|-----------------------------------------------|
D|-----------------------------------------------|
A|--------0----0-------2-------------------------|
E|-----------------------------------------------|



Rhythm Fig. 9

G|-----------------------------------------------|
D|-----------------------------------------------|
A|--------7--9--10--------3--3------5--5---------|
E|--0--0-----------------------------------------|



G|-----------------------------------------------|
D|-----------------------------------------------|
A|--------7--9--10--------3--3----5/7\5----------|
E|--0--0-----------------------------------------|
  development and support by
dmitry ivanov