rock
 
|tablatures   |lyrics   |discussion forums   |more tabs @ XGuitar.com

Kiss tabs

100,000 Years bass tab

	#look for another version at line 221

Song: 100,000 YEARS
Artist: KISS
Album: KISS
--------------------

Transcribed by Emil Ortenmark, kfemil@telia.com

Tuned down 1/2-step

Comments: Pretty much variations on a theme this. It has a swing feel (as in
8th-note triplets) and utilizes both 5ths and 3rds to harmonize the chords.

Key:
/    = slide up
\    = slide down
b    = bend (whole step)
b^   = bend (1/2 step)
b^^  = bend (1 1/2 steps)
pb   = pre-bend
r    = release-bend
t    = tap with righthand finger
h    = hammer-on
p    = pull-off
~    = Vibrato
*    = Natural Harmonic
#(#) = Trill
**   = Artificial Harmonic
x    = Dead notes (no pitch)
P.M. = Palm mute (- -> underneath indicates which notes)
(\)  = Dive w\bar
(/)  = Release w\bar
Tp   = Tap w\plectrum




Rhythm Fig. 1
                                               
Gb|-------------------------------------------------------------|
Db|-------------------------------------------------------------|
Ab|-----7\----------------------7\------------------------------|
Eb|--0-----------------------0----------------------------0-----|


                                                                
Gb|------------------------------------------------7------------|
Db|------------------------------------------7h-9-----9--7------|
Ab|--7-----7-----7-----7--5------7-----7--------------------10--|
Eb|-----0-----0-----0--------7------0-----0---------------------|
    < - - - - - - 3x - - - - - >



Rhythm Fig. 2
                                                                
Gb|--------9--9--------9--7-----------9--9--------7-------------|
Db|--------------------------9--------------7h-9-----9--7-------|
Ab|--7--7--------7--7-----------7--7-----------------------10---|
Eb|-------------------------------------------------------------|


Rhythm Fig. 3
                                                            
Gb|--------9--9--------9--7-----------9--9--------9--7----------|
Db|--------------------------9--------------------------9-------|
Ab|--7--7--------7--7-----------7--7--------7--7----------------|
Eb|-------------------------------------------------------------|



Rhythm Fig. 4
                                                            
Gb|--------9--9--------9--7-----9----7---------9----7-----------|
Db|--------------------------9--------------9-------------------|
Ab|--7--7--------7--7-------------------------------------------|
Eb|-------------------------------------------------------------|



Rhythm Fig. 5
                                                         
Gb|--------9--9--------9--7-----------9-------------------------|
Db|--------------------------9--------------7----9--------------|
Ab|--7--7--------7--7-----------7--7-----7----------------------|
Eb|-------------------------------------------------------------|



Rhythm Fig. 6
                                                                  
Gb|--------9--9--------9--7-------------------------------------|
Db|--------------------------9--------7-----7--9p-7--5--7p-5----|
Ab|--7--7--------7--7-----------7--7-----7--------------------7-|
Eb|-------------------------------------------------------------|
                                      Let ring


Rhythm Fig. 7
                                                            
Gb|-------------------------------------------------------------|
Db|--5----------------------------------------------------------|
Ab|---------------0---------7-----------------------------------|
Eb|-------------------------------------------------------------|



Rhythm Fig. 8
                                                  
Gb|-----9----7---------9----7-----------------------------------|
Db|--9--------------9-------------------------------------------|
Ab|-------------------------------------------------------------|
Eb|-------------------------------------------------------------|



Rhythm Fig. 9
                                                                  
Gb|-------------------------------------------------------------|
Db|-------------------------------------------------------------|
Ab|--7--------5--7----5--7----------------7--------5--7---------|
Eb|-------------------------------------------------------------|
    < - - - - - 3x - - - - >


Rhythm Fig. 10
                                                               
Gb|--------9--9--------9--7-----------9--9--------7-------------|
Db|--------------------------9--------------7h-9-----9--7-------|
Ab|--7--7--------7--7-----------7--7-----------------------7----|
Eb|-------------------------------------------------------------|


                                                            
Gb|-------------------------------------------------------------|
Db|-------------------------------------------------------------|
Ab|--10----------------8----------------------------------------|
Eb|-------------------------------------------------------------|



Rhythm Fig. 11
                                                          
Gb|-------------------------------------------------------------|
Db|-------------------------------------------------------------|
Ab|--7\---------------------------------------------------------|
Eb|-------------------------------------------------------------|



Rhythm Fig. 12
                                                                
Gb|--9--7--9--9--7-----9--7--9--9--7-----9--7-------------------|
Db|-----------------9-----------------9--------9----------------|
Ab|-------------------------------------------------7-----------|
Eb|-------------------------------------------------------------|




100,000 YEARS
Paul Stanley, Gene Simmons

[Rhy. Fig 1]
[Rhy. Fig 2] (4x)

[Rhy. Fig 3]
I'm sorry to have taken so long
It must have been a bitch while I was gone
[Rhy. Fig 2]
You mind if I sit down for a while
[Rhy. Fig 4]
You'll reacquaint yourself with my style

[Rhy. Fig 3]
Well, how could you have waited so long
It must have been a bitch while I was gone
[Rhy. Fig 2]
All this time you put up a fear

[Rhy. Fig 7]
For a hundred thousand years
[Rhy. Fig 8]

[Rhy. Fig 5] (3x)
[Rhy. Fig 2]

[Rhy. Fig 2]
I'm sorry to have taken so long
It must have been a bitch while I was gone
[Rhy. Fig 6]
All this time you put up a fear

[Rhy. Fig 7]
For a hundred thousand years

[Rhy. Fig 9]
And baby won't you let me
I think I'm goin' out of my head
I'm just about to, ooh yeah, ha
[Rhy. Fig 8]

[Rhy. Fig 5] (3x)
[Rhy. Fig 10] (4x)
[Rhy. Fig 11]

I'm sorry to have taken so long
It must have been a bitch while I was gone 
You mind if I sit down for a while, would you babe
You'll reacquaint yourself with my style
[Rhy. Fig 8]

[Rhy. Fig 5] (3x)
[Rhy. Fig 10] (4x)

[Rhy. Fig 12]


#########------------------------------------------------------------#########

"100,000 YEARS" from the KISS lp "KISS"
   Bass Tabs by Steve Pomponio (spomponio@worldnet.att.net)

G:---------------------------------------------------------------------------|
D:---------------------------------------------------------------------------|
A:--7s/---7s/---7---7---7---7-5---7---7---7---7-5---7---7---7---7-5---7---7--|
E:0-----0-----0---0---0---0-----7---0---0---0-----7---0---0---0-----7---0---0|






G:---------------------------------------------------------------------------|
D:---------------------------------------------------------------------------|
A:-7---7-5-------7-7-----7-5-------7-7-----5-----------7-7-----7-5-------7-7-|
E:---0-----7-0-0-----0-0-----7-0-0-----5-7---7-5-3-0-0-----0-0-----7-0-0-----|






G:---------------------------------------------------------------------------|
D:---------------------------------------------------------------------------|
A:---5-----------7-7-----7-5-------7-7-----5-----------7-7-----7-5-------7-7-|
E:5-7--7-5-3-0-0-----0-0-----7-0-0-----5-7---7-5-3-0-0-----0-0-----7-0-0-----|





              Fig 1
G:-----------:---------------------------------------------------------------|
D:-----------:---------------------------------------------------------------|
A:----5------:----7-7-----7-5-------7-7-----7-5-------7-7-----7-5-------7-7--|
E:5-7---7-5-3:0-0-----0-0-----7-0-0-----0-0-----7-0-0-----0-0-----7-0-0-----0|






G:---------------------------------------------------------------------------|
D:----------------------------------------------------------------------7-5--|
A:---7-5-------7-7----7-5-------7-7-----7-7-----5-----------7-7-----7-------7|
E:-0-----7-0-0-----0-0----7-0-0-----0-0-----5-7---7-5-3-0-0-----0-0---0------|




                                         (Fig 2) 3x
       Verse=(Fig 1) & End With:         Solo 1                       
(Fig 3
G:----:---------------------------------:-----------------------------:------|
D:-7-5:--------------5-7-------7-5---7-5:-----------------------------:------|
A:----:------------------7---7-----7----:----7-7-----7-5-------7-7----:----7-|
E:----:---------------------------------:0-0-----0-0-----7-0-0-----0-3:0-0---|





  )                               Verse 2= (Fig 3) 2x & End With:
G:-------------------------------:-------------------------------------------|
D:-------------------------------:-------------------------------------------|
A:7-----7-5-------7-7-----5------:------------------------7-7-----7-5-------7|
E:--0-0-----7-0-0-----5-7---7-5-3:--------------------0-0-----0-0-----7-0-0--|





                       Bridge                                   (Fig
4)     S
G:--------------------:----------------------------------------:-----------:-|
D:---5p4---5p4---5-7--:----------------------------------------:--7-5---7-5:-|
A:-7-----5-----5-----5:-7-5-7-5-7--7-5-7-5-7--7-5-7-5-7--7-5-7-:7-----7----:-|
E:--------------------:----------------------------------------:-----------:0|





  olo 2
G:---------------------------------------------------------------------------|
D:---------------------------------------------------------------------------|
A:---7-7-----7-5-------7-7---------7-7-----7-5-------7-7---------7-7-----7-5-|
E:-0-----0-0-----7-0-0-----0-3-0-0-----0-0-----7-0-0-----0-3-0-0-----0-0-----|





                                                       (Fig 5)
G:----------------------------------------------------:----------------------|
D:----------------------------------------------------:-5-3------------------|
A:------7-7---------7-7-----7-5-------7-7-----5-------:----sl/12-----7-7-----|
E:7-0-0-----0-3-0-0-----0-0-----7-0-0-----5-7---7-5--3:----------0-0-----0-0-|





                                              Drum Break= (Fig 4, Fig 2,
Fig
G:-------------------------------------------:-------------------------------|
D:--------------------------5-3--------------:-------------------------------|
A:7-5-------7-7-----7-----------sl/12--ETC>>>:-------------------------------|
E:----7-0-0-----5-7---7-5-3------------------:-------------------------------|



                
                
  5) & End With:
G:--------------|
D:--------------|
A:---7-7-7-5----|
E:-----------7-0|
  development and support by
dmitry ivanov