rock
 
|tablatures   |lyrics   |discussion forums   |more tabs @ XGuitar.com

Judas Priest tabs

You've Got Another Thing Comin' bass tab

Judas Priest- You've got another thing comin'


Intro/ Verse:

G-----------------------------------------------------
D-----------------------------------------------------
A-----------------------------------------------------
E-222222222222222222222222222222222---

Chorus:

G----------------------
D----------------------
A------5----2---------
E-2---------------2----

Before the solo:

G-------------------
D-4---4---2--------
A--------------2---
E-------------------

During solo:

G------------------------
D------------------------
A------------------------
E-2222222222222222-

But then, (still during solo) it switches to:

G----------------------
D----------------------
A------5----2---------
E-2---------------2----


That's every part to the song. Just listen to the song for timing and for when to play each part.
 This song is easy so u can always add little bass fills and what not if u are bored... Enjoy.
  development and support by
dmitry ivanov