rock
 
|tablatures   |lyrics   |discussion forums   |more tabs @ XGuitar.com

Judas Priest tabs

Victim Of Changes bass tab

Victim of Changes by Judas Priest
From The Album "Sad Wings of Destiny"
Standard Tuning
Tabbed by Mark Rawlins

Guitar Intro

Riff 1 [0:16}]
G|-----------------------------------------------|
D|-----------------------------------------------|
A|-5h7-7-7--5h7-7-7--7--5~-----------------------|
E|--------------------------7-6-5-3--------------|

Riff 2
G|-----------------------------------------------|
D|-----------------------------------------------|
A|--0--0-3-0--3-3-3--5------0---0-3-0--3--3-3----|
E|--------------------------------------------3--|

Riff 1 x 2

G|--9-7--------------------------------|
D|------9-8-7-5-4-2--2-----------------|
A|---------------------5-2-1-0---------|
E|-----------------------------3-2-1-0-|

Riff 1 x 4 Lyrics Start (add an open E to the end of the riff the 2nd time)
Riff 2
Riff 1 x 2
Riff 2
Riff 1 x 2

Riff 3 (I’m not sure about the notes in the brackets, I think they’re right)
G|------------------------------|---------------------(5)--------(4)---|
D|------------------------------|------------------(5)---(5)--(4)---(4)|
A|--2--2-2-2--2-2-2--2-2-2--2-2-|--2--2-2-2--2-2-3-----------2---------|
E|------------------------------|--------------------------------------|

Riff 1

Fill 1
G|-------------|
D|-------------|
A|-5h7-7-7-7-5-|
E|-------------|

Rest While Guitar Plays Fill

Riff 4
G|------------------------------------|  x5
D|------------------------------------|
A|------------------------------------|
E|--7-5-0-0--5-3-0-0--3-2-0-0--3-2-0--|

Alternate Riff
G|-------------------------------------|
D|-------------------------------------|
A|-------------------------------------|
E|--7-5-0-0--5-3-0-0--3-2-0-0--2-3-2-0-|

Riff 1 x 4
Riff 2
Riff 1 x 2
Riff 2
Riff 1 x 2
Riff 3
Riff 1
Fill 1

G|----------------------------|----------------------------| x2
D|-----------------------2----|----------------------------|
A|-------------------------3~-|--[7-7]--[5-5]--[4-4]--2----|
E|--[55-]--[3-3]--[2-2]-------|-------------------------3~-|
"[You’ve been] [fooling] [with some]" etc

G|--------------------------|--------------------------|(1st Guitar Solo Starts)
D|--------------------------|--------------------------|
A|--5h7-7-7-7----4h5-5-5-5--|--3h4-4-4-4----5----------|
E|--------------------------|-----------------3-3-3-3--|

G|------------------------------------| x4
D|------------------------------------|
A|--5h7-7-7-10p7-7-7-5h7-7-7-10p7-5h7-|
E|------------------------------------|

G|-----------------------------|------------------------|-------------------|
D|-----------------------------|------------------------|-------------------|
A|--5-0---0--------------3---5-|----3---5---3--5--5---4-|----2/9------------|
E|------3----4-3-2--3-2--------|------------------------|-------------------|

Rest while guitar plays intro twice
G|------------------------|-------------------------| x 2
D|------------------------|-------------------------|
A|--5/7--------7/5--------|--5/7--------7/10\5------|
E|------------------------|-------------------------|

G|------9----------7------|------9---------------7--| x 13 (Lyrics Start)
D|------------------------|----------------5--------|
A|--5/7--------7/5--------|--5/7--------------5-----|
E|------------------------|-------------3-----------|
"Once she was beautiful" etc

G|------------------------|-------------------------| x 6 (After playing this
D|------------------------|-------------------------|      twice the 2nd guitar
A|--5/7--------7/5--------|--5/7--------7/10\5------|      solo kicks in)
E|------------------------|-------------------------|

Riff 1 x 4
Riff 4 x 2

Outro
G|--------------------|--------------------|------|-------------------||
D|--------------------|--------------------|------|-------------------||
A|-----------5--------|--3--------2--------|------|--7/---------------||
E|--3-----------------|--------------------|------|-------------------||

Tabbed by Mark Rawlins (gtopro@hotmail.com)
  development and support by
dmitry ivanov