rock
 
|tablatures   |lyrics   |discussion forums   |more tabs @ XGuitar.com

Judas Priest tabs

Turning Circles guitar tab

Date: Mon, 23 Mar 1998 17:54:50 -0800
From: Judy Letostak 
Subject: TAB: Judas Priest - Turning Circles

Judas Priest - Turning Circles
letostak@ix.netcom.com (Judy Letostak)
Metal Edge BBS (619)423-4970
http://www.netcom.com/~letostak/main.htm


        ___
Intro ( | | |  rhythm listen to recording)

2x w/out band
-7-------------------------------------------------------
-4---------7-------12-----7--7-/-9-/-11------------------
-4---------6--------9------------------------------------
--------------------9-----4--4-/-6-/--8------------------
---------------------------------------------------------
--------------------------------------------------------- 

Verse - Bar a Bm chord for this

---------------------------------------------------------
-------3--------3--------2-----3--3----------------------
-------4--------2--------2-----2--2----------------------
---------------------------------------------------------
-2--2-----2--2-----2--2-----0----------------------------
--------------------------------------------------------- 

Chorus

---------------------------------------------------------
---------------------------------------------------------
---------------------------------------------------------
-4--------------------4----------------------------------
-2------6------4------2--------2------4------------------
--------4------2---------------0------2------------------ 


Verse
Chorus
Bridge (same as verse but play Bm and pick the same pattern
as the verse with a clean sound) also the lead rhythm part

Lead

-------------------7-------------------------------------
--10~----------------10-7--------------------------------
----------9p7-------------9b(10)-rb9p7~------------------
-----------------9---------------------------------------
---------------------------------------------------------
--------------------------------------------------------- 

Then a volume swell with feedback from the D


---------------17b-----19-17-----------------------------
--17b(19)hold----------------19---19p17--15~-------------
---------------------------------------------------------
---------------------------------------------------------
---------------------------------------------------------
--------------------------------------------------------- 
more feedback from the D


Chorus
Verse
Fade on Verse (more feedback)

Turning Circles
(Tipton/Halford/Downing)

Change, change, it's all rearrangin'
Lookin' around at the situation
Go back, see what you're doin'
The way you're takin' life, you're goin'
To rack and ruin

I'm turning circles, so stay away
We've all got somethin' wrong to say

Slow down, see where we're headin'
The way things are goin' now
Your life it ain't pleasin'
Had my share of up and down
Don't spend time, don't spend time
Rushin' around

I'm turning circles, so stay away
We've all got somethin' wrong to say

  development and support by
dmitry ivanov