rock
 
|tablatures   |lyrics   |discussion forums   |more tabs @ XGuitar.com

Judas Priest tabs

This Hollywood Life guitar tab

JUDAS PRIEST - This hollywood life 
__________________________________

       
Hi,
today you can kick your distortion, turn your amp on full power and rock.
This is THIS HOLLYWOOD LIFE

intro
=====
  D5                                    G          F        Em          D
|-----------------------| play twice, |----3----------------1--1--0---|-2-|
|-3----3-----3----------| then        |----3----------------1--1--0---|-3-|
|-2----2-----2----------|             |---------------------2--2----0-|-2-|
|-0----0-----0-----0----|             |-------------------------------|-0-|
|----3----3-----3--0--3-|             |-------------------------------|---|
|-----------------------|             |-3-----3--2--1--0h1------------|---|
play this as intro and with slight variations as verse:
variations: play the end of the D5 part before the G part like this:
     |---------------| leave out the D at the end of the G part
     |-3-------------| and continue dirctly after the Em with 
.....|-2-------------| the D5 part
     |-0-------------|
     |-----3--2h3--2-|
     |---------------|

So, this is pretty cool to play! Now from "Come rescue me" on, things go
very weirdo! I got this from a life video, so it is at least like Richard
Oakes playes it life, but it doesnīt sound too bad with the CD!
       
 D5               Bb5          D5           Am
|----10-12-13---|-5/6-6----6----5/6-6-----|-5-8p7---5-|
|----10-10-10-0-|-5/6-6--6---6--5/6-6-6---|-5-----5-5-|
|---------------|-6/7-7---------6/7-7---0-|-5---------|
|-2-------------|-------------------------|-----------|
|-0-------------|-------------------------|-#---------| (# =use tremolo bar)
|---------------|-------------------------|-----------|
 come rescue      rescue me                from this H. 

  G                           D5                            Bbmaj7
|-----3-----3-----3-3h5-3---|------10----10----12-13-13---|-6--6-------6-6---|
|-----3-----3-----3-------3-|-8/10----10----10-10-10----0-|-6----6-----6---6-|
|-3/4---3/4---3/4-----------|-----------------------------|-7------6/7-------|
|-4/5---4/5---4/5-----------|-----------------------------|-8------7/8-------|
|---------------------------|-----------------------------|------------------|
|---------------------------|-----------------------------|------------------|
 life                         come rescue..                rescue   me

  Am                  G
|-5-----7-8p7-5--5--|-----3-----3-----3-3h5-3---|
|-5-5-5-------5---5-|-----3-----3-----3-------3-|
|-5-----------------|-3/4---3/4---3/4-----------|
|-------------------|-4/5---4/5---4/5-----------|
|-------------------|---------------------------|
|-------------------|---------------------------|
 from this Hollywood life


the kind of solo:
=================

 D5                     G              F          D5
|---------|------------|-----3-3-3-3--3\1-1-----|-----------|------------|
|-3-3-1---|-1h3--3-1---|--------------------1---|-3-4/5//15-|-15---13-13-|
|-2-2---2-|----------2-|-2/4---4-4-4--4\2-2---0-|-2-3/4//14-|---------14-|
|-0-------|------------|------------------------|-0---------|------------|
|---------|------------|------------------------|-----------|------------|
|---------|------------|------------------------|-#---------|------------|        

 D7                G5                             D7
|----------------|-------15-15-15-------13-13-0-|-14-------14-------14\2-0-------|
|-13-15----13-13-|----------15-15----------13-0-|----13-------13---------0-------|
|-------------14-|-14/16----------16\14---------|-------14-------14------0----10-|
|----------------|------------------------------|--------------------------12----|
|----------------|------------------------------|--------------------------------|
|----------------|------------------------------|--------------------------------|

Now the part with the "Hooooh"
 D5
|-------------------------------| play 6 times with
|-12b13b12-12p10-12p10----------| slight variations then go on 
|-12b13b12-12p10-12p10----------| with:
|----------------------12-10h12-|
|-------------------------------|
|-------------------------------|
  G              F              D5
|----------------------------|----------------------------------------|
|-10----10-12b13-12----------|-12p10-------10----------10-------10----|
|-10----10-12b13-12-------10-|-12p10----12b14-10----12b14-10----12b15-|
|----12-------------10-12-10-|-------12----------12----------12-------|
|----------------------------|----------------------------------------|
|----------------------------|----------------------------------------|

then just hit the chords once along with the lyrics: 
D5,Bb5,Am,G5
then from "come take this Hollywood life" on, play the "Hooooh" part again
after the last lyrics just hit the D-Chord in first position several times,
move it up to the 14th fret and finish it all off with a D5 once!

This song feels really great to play on your guitar!

The 2 of us
===========
This one is not so interesting to play on guitar. Itīs just chords strumming!

intro and verse: Am/C/Am/C
Lying in my bed: F/G/Em
2 of us: G,F /Em,F/ G,F
next part: Em/D/Em/D/DmG/EmG/FG/Cmaj7G/DmG/EmG/FG/G7

alone but not lonely: C/F/C/F

chords:

DmG EmG FG  Cmaj7G
-1------------
-3-------1----
-2-------2----
----2----3---2
-------------3
-3--3----3---3

  development and support by
dmitry ivanov