rock
 
|tablatures   |lyrics   |discussion forums   |more tabs @ XGuitar.com

Judas Priest tabs

The Ripper guitar tab

THE RIPPER by Judas Priest
__________________________


Transcribed by Andrew Seebaran

Seebaran@unixg.ubc.ca



This is my first time transcribing, so I don't know how accurate this stuff is







	Intro...                                   In for a surprise...   
    ---------------10-11------15-11----18--------------------------------------
    ----------13----------13--------13-----------------------------------------
    ---------------------------------------------2---2-------------------------
    ---------------------------------------------2---2-------------------------
    ---------------------------------------------0---0--listen for struming----
    --------------------------------------------------------------------------


    When you least expect me...                  ...I'll attack
    ------------------------------------------------------------------------------------------------
    --------------listen for strumming--------------------------------------------------------------
    ---5--------------------------------------------------------2-----2-----2-----2-----2p0-0h2------
    ---5-------------5-------------3------2---------------------2-----2-----2-----2-----2p0-0h2-----
    ---3-------------5-------------3------2---------------------0-0-0-0-0-0-0-0-0-0-0-0-0-----0----
    -----------------3-------------1------0-----------------------------------------------------------



main riff:   

	I'm sly when I'm sneaking...

    ---------------------------------------------------------------------------
    ---------------------------------------------------------------------------
    --2-----2-----2-----2-----2p0-0h2------------------------------------------
    --2-----2-----2-----2-----2p0-0h2------------------------------------------
    --0-0-0-0-0-0-0-0-0-0-0-0-0-----0------------------------------------------
    ---------------------------------------------------------------------------



play till

	Oh hear my warning...

    -------------------------------------------------
    --------------listen for strumming--------------
    ---5---------------------------------------------
    ---5-------------5-------------3------2-----------
    ---3-------------5-------------3------2------------
    -----------------3-------------1------0------------



Then,

    ---------------------------------------------------------------------------------------
    -------------------------8-7-----------------------------------------------------------
    -------------------7-9-------7-10-9----8-----------------------------------------------
    ------7-9-10-9--10------------------10-------------------------------------------------
    ---------------------------------------------------------------------------------------
    ---------------------------------------------------------------------------------------



play main riff and chorus again



Then,

(Riff A)

    ---------------------------------------------
    -------------------------8-7-----------------
    -------------------7-9-------7-10-9----8-----
    ------7-9-10-9--10------------------10------- repeat twice
    ---------------------------------------------
    ---------------------------------------------



on last time play:



    -------------------------------------------------------------------------------------------
    -------------------------8-7-------------------------------------------------------------
    -------------------7-9-------7-10-9----8-7----------------------------------------------
    ------7-9-10-9--10------------------10-----7-10-9-----------------------------------------
    -------------------------------------------------------------------------------------------
    ------------------------------------------------------------------------------------------

     (End Riff A)



Guitar Solo:



    -------------------------------------------------------------------------------------
    ----15b(17)r15-13-12--13p12-------13-12-------12-13-15---15b(17)r15-13-12--13p12------
    ----------------------------------------12-14----------------------------------------- 
    ----------------------------14---------------------------------------------------14---
    --------------------------------------------------------------------------------------
    --------------------------------------------------------------------------------------



    -------------------------------------------------------------------------------------
    ---13-12----13-12-------12b(14)r12-10-12-----10----13-12----13-12---------------------
    ---------12-------12-14-------------------12-------------12-------12-14--------------- 
    --------------------------------------------------------------------------------------
    --------------------------------------------------------------------------------------
    --------------------------------------------------------------------------------------



    -------------------------------------------------------------------------------------
    --12b(14)r12-10-12--------13---------12------------------------------------------------
    -------------------12--------12--------12-14------------------------------------------ 
    ----------------------14----------12---------------------------------------------------
    ----------------------------------------------------------------------------------------
    --------------------------------------------------------------------------------------



interlude:



    -------------------------------------------------------------------------------------
    --------------------------------------------------------------------------------------
    ---------------------------------------------------------------------------------- 
    ---------------7------------------7------------------7------------------7--------------
    ---7-9-10-9-10---10-9-7-9-10-9-10--------7-9-10-9-10---10-9-7-9-10-9-10----------------
    --------------------------------------------------------------------------------------



    -------------------------------------------------------------------------------------
    --------------------------------------------------------------------------------------
    ----------------------------------------------------------------------------------------- 
    ----------------8---------------------8------------------9---------------------9----------
    --8-10-11-10-11---11-10-8-10-11-10-11------9-11-12-11-12---12-11-9-11-12-11-12---------------
    --------------------------------------------------------------------------------------



    -------------------------------------------------------------------------------------------------------------
    ---------------------------------------------------------------------------------------------------------------
    ---------------------------------------------------------------------------------------------------------------
    -----------------10----------------------11----------------------------------------------14-----------------------
    --10-12-13-12-13----13-12-11-13-14-13-14----14-13-12-14-15-14-13-15-16-15-14-16-17-16-17------------------------
    ---------------------------------------------------------------------------------------------------------------



then,



    -------------------------------------------------------------------------------------
    --------------------------------------------------------------------------------------
    -------------------------------------------------------------------------------------- 
    -------------7------------------7-----------------------------------------------------
    -7-9-10-9-10---10-9-7-9-10-9-10-5-------------play this 4 times-----------------------
    -0------------------0-----------------------------------------------------------------





play main riff and chorus



play riff A



Outro:



    -------------------------------------------------------------------------------------
    --------------------------------------------------------------------------------------
    ---------------2---------------------------------------------------------------------- 
    -------10-9-10-2----------------------------------------------------------------------
    ---------------0----------------------------------------------------------------------
    --0-----------------------------------------------------------------------------------









Email me if you have any questions or corrections

Seebaran@unixg.ubc.ca
  development and support by
dmitry ivanov