rock
 
|tablatures   |lyrics   |discussion forums   |more tabs @ XGuitar.com

Judas Priest tabs

The Rage guitar tab

JUDAS PRIEST - THE RAGE
_______________________


Here are the tabs for a very aggressive song:

Not very sure of the intro ; Here is what I found:

Intro: (clean)
e---------------------------------------------------------------------------
B--------------------------------------------------------------------------
G---9--9--9--12--12--12---5--5--5--7--7--7----------------------------
D---7--7--7--10--10--10---3--3--3--5--5--5----------------------------
A--------------------------------------------------------------------------
E---------------------------------------------------------------------------

Riff : ( disto )
e-------------------------------------------------------------------------------------------
B-------------------------------------------------------------------------------------------
G--------------------------------------------------------------------------------------------
D|-----------5-------------------5--------5--7--5-------------------------------------------
A-----7--7--3------------3-----3--7--7--3--5--3------------------------------------------
E-----5--5------0--3--5-----0-----5--5----------------------------------------------------

RYTHM
:
Glenn solo's rythm:
e-------------------------------------------------------------------------------------------
B-------------------------------------------------------------------------------------------
G------------------------------------------------------------------------------------------
D--------------2--------------------5--7--9--11--12--------------------------------------
A----7--5--3--2----------|---7--5--3--5--7---9--10--|--12-10--8--7---------------------
E|----5--3--1--0--0--3---|---5--3---------------------|--10--8--6--5----------------------

Organisation:
Intro 4 ; riff 4 ;rythm 1 ; riff 2 ; rythm 1 ; riff 2 ; Glenn solo's
rythm 2 ; Intro riff 4 ; Riff till the end.

  Comment and advises are welcome to : steeler@ipt.univ-paris8.fr

  development and support by
dmitry ivanov