rock
 
|tablatures   |lyrics   |discussion forums   |more tabs @ XGuitar.com

Judas Priest tabs

The Rage bass tab

Artist: Judas Priest
Song: The Rage
Album: British Steel

Tabbed by DC
dc@gamez-and-more.de

INTRO1:
|--------------5----------------------------|
|------------5------------------------------| 6x
|----------------3--------3--------7--------|
|-5-0-5-----------------1---1--------7-0--3-|

INTRO2:
|---------------------------------|
|---------------------------------| 8x
|---------------------------------|
|-5---5-5-5---5-5-5---5-5-5---5-5-|

VERSE:
|---------------------------------|
|---------------------------------|
|---------------------------------|
|-5---5-5-5---5-5-5---5-5-5---5-5-|

|---------------------------------|
|---------------------------------|
|---------------------------------|
|-3---3-3-3---3-3-3---3-3-3---3-3-|

|---------------------------------|
|---------------------------------|
|---------------------------------|
|-1---1-1-1---1-1-1---1-1-1---1-1-|

|---------------------------------|
|---------------------------------|
|---------------------------------|
|-0---0-0-0---0-0-0---0-0-0---0-3-|

|---------------------------------|
|---------------------------------|
|---------------------------------|
|-5---5-5-5---5-5-5---5-5-5---5-5-|

|---------------------------------|
|---------------------------------|
|---------------------------------|
|-3---3-3-3---3-3-3---3-3-3---3-3-|

|---------------------------------|
|---------------------------------|
|-3---3-3-3---3-3-3---3-3-3---3-3-|
|---------------------------------|

|---------------------------------|
|---------------------------------|
|-5---5-5-5---5-5-7---7-7-7---7-7-|
|---------------------------------|

REFRAIN:
|---------------------------------|
|---------------------------------| 4x
|---------------------------------|
|-5---5-5-5---5-5-5---5-5-5---5-5-|

THEN:

VERSE

REFRAIN


GUITAR SOLO:
                                    _
|---------------------------------|  |
|---------------------------------|  |
|-5---5-5-5---5-5-5---5-5-5---5-5-|  |
|---------------------------------|  |
                                     |
|---------------------------------|  |
|---------------------------------|  |
|-3---3-3-3---3-3-3---3-3-3---3-3-|  |
|---------------------------------|  |
                                     2x
|---------------------------------|  |
|---------------------------------|  |
|-1---1-1-1---1-1-1---1-1-1---1-1-|  |
|---------------------------------|  |
                                     |
|---------------------------------|  |
|---------------------------------|  |
|-0---0-0-0---0-0-0---0-0-0---0-0-|  |
|---------------------------------| _|

THEN:

INTRO RIFF 6x

REFRAIN

VERSE

REFRAIN RIFF 16x


THE END:
|---------------------------------|
|---------------------------------|
|---------------------------------|
|-5-------------------------------|


HAVE FUN!
  development and support by
dmitry ivanov