rock
 
|tablatures   |lyrics   |discussion forums   |more tabs @ XGuitar.com

Judas Priest tabs

The Hellion guitar tab

The hellion – Judas priest

Written By Glenn Tipton, KK Downing and Halford
Tabbed By Andreas

e-------------------
B------8----7-------
G---------------9~--  Play 2 times
D--9----------------
A-------------------
E-------------------

e------7-------------
B----------10-----8--
G--------------------
D--9-----------------
A--------------------
E--------------------

e-----------------------
B-----------------------
G-----------7----9------
D------10------------9~-
A--10-------------------
E-----------------------

e------7-----------------
B-----------10-------8--
G--9---------------------
D------------------------
A------------------------
E------------------------


Play 2 times           Ending
e--------------------  ----12~----10~----12
B------8---7----12~--  --------------------
G--9-----------------  --------------------
D--------------------  --------------------
A--------------------  --------------------
E--------------------  --------------------       -> Electric eye

This should be pretty perfect but if anyone has any comments please say something
  development and support by
dmitry ivanov