rock
 
|tablatures   |lyrics   |discussion forums   |more tabs @ XGuitar.com

Judas Priest tabs

The Green Manalishi bass tab

Intro 2X
G -|-|--------------------------------------------------------------------------|
D -|-|-------------5-5-5--------------------------------------------------------|
A -|-|--7--5--7------------5-5-5---7-7-7---5-5---3-3-3-3-3----2-3---5-----------|
E -|-|--------------------------------------------------------------------------|

G ------------------------|--------------------------|--------------------------|
D ------------------------|--------------------------|--------------------------|
A ------------------------|--------------------------|--------------------------|
E ---0-0-0-0-0-0-0-0-0-0--|--0---3-5---3---5---3--0--|--0-0-0-0-0-0-0-0-0-0-0---|

G ---------------------------|---------------------|----------------------------|
D ---------------------------|---------------------|----------------------------|
A ---------------------------|---------------------|----------------------------|
E ---0---3-5---3---5---3--0--|---3-3-3-3-3-3-3-3---|--5-5-5-5-5-5-5-5--0--------|


  3X
G ---------------------------|-------------------------|------------------------|
D --------------5--5---------|-------------5--5--7-----|------------------------|
A ---7--5--7----------7--5---|--7--5--7-------------5--|------------------------|
E ---------------------------|-------------------------|--0-0-0-0-0-0-0-0-0-0---|

G ---------------------------|-----------------------|--------------------------|
D ---------------------------|-----------------------|--------------------------|
A ---------------------------|-----------------------|--------------------------|
E ---0---3-5---3---5---3--0--|--0-0-0-0-0-0-0-0-0-0--|--0---3-5---3---5---3--0--|


                                              3X
G ---------------------|----------------------|---------------------------------|
D ---------------------|----------------------|---------------5--5--------------|
A ---------------------|----------------------|----7--5--7----------7--5--------|
E ----3-3-3-3-3-3-3-3--|--5-5-5-5-5-5-5-5--0--|---------------------------------|


                            4X
G --------------------------|---------------------------------------------------|
D --------------5--5--7-----|-------------5-5-5---------------------------------|
A ---7--5--7-------------5--|--7--5--7-----------5-5-5--7-7-7--5-5--3-3-3-3-3---|
E --------------------------|---------------------------------------------------|

G --------------|-------------------------|-------------------------------------|
D --------------|-------------------------|-------------------------------------|
A ---2-3---5----|-------------------------|-------------------------------------|
E --------------|---0-0-0-0-0-0-0-0-0-0---|--0---3-5---3---5---3--0-------------|

G ------------------------|--------------------------|--------------------------|
D ------------------------|--------------------------|--------------------------|
A ------------------------|--------------------------|--------------------------|
E ---0-0-0-0-0-0-0-0-0-0--|--0---3-5---3---5---3--0--|--3-3-3-3-3-3-3-3---------|


                     4X
G -------------------|----------------------------------------------------------|
D -------------------|-------------5-5-5----------------------------------------|
A -------------------|--7--5--7-----------5-5-5--7-7-7--5-5--3-3-3-3-3--2-3--5--|
E --5-5-5-5-5-5-5-5--|----------------------------------------------------------|

G ------------------------------------------------------------------------------|
D ----5--4-----2-----------------------------5--4--2----------------------------|
A ----------5-----5--2-----------------2--3-------------------------------------|
E ----------------------5--0--2--3--5-------------------------------------------|
                                                                         End
  development and support by
dmitry ivanov