rock
 
|tablatures   |lyrics   |discussion forums   |more tabs @ XGuitar.com

Judas Priest tabs

The Drowners guitar tab

JUDAS PRIEST - The Drowners 
___________________________


I don't know if this will make any sense to you but here
goes.


Drun:
e|-----3-----4b~~~-------|
B|-------4---------------|
G|-1h3-----3-------------|


INTRO:  F#(1 strum)
	G#  /  C#(bend on last strum) / B / D# C#
	G# /   C#( "   "    "    "  ) / B / D# C# / Drun

VERSE: 	as intro (without f#)

CHORUS:	G# / Cm / C# / D#(bend on last strum)  times 4?

VERSE

CHORUS

SOLO:
|--------1~~~-------------1~~~--1~~~~~--4-4--2---1---------|
|--------1~~~-------------2~~~--4b~~~~---4----2---1--4b~~--|
|----1---1~~~-------------3~~~-----------------3---1-------|
|-1h3----3~~~----------1--3~~~-----------------------------|
|--------3~~~------1-3----1~~~-----------------------------|
|--------1~~~--1-4-----------------------------------------|

CHORUS: to fade


You will find that is best played with a capo on the 1st fret.

  development and support by
dmitry ivanov