rock
 
|tablatures   |lyrics   |discussion forums   |more tabs @ XGuitar.com

Judas Priest tabs

Take On The World guitar tab

BAND: Judas Priest
SONG: Take on the World
ALBUM: Killing Machine

Simple tab :)

Verse A
|--------------------------------------------------------------------|
|--------------------------------------------------------------------|
|--------------------------------------------------------------------|
|--5-/-7--(7)----X--X--5-/-7--(7)------------------------------------|
|--5-/-7--(7)----X--X--5-/-7--(7)------------------------------------|
|--3-/-5--(5)----X--X--3-/-5--(5)------------------------------------|

Verse B
|--------------------------------------------------------------------|
|--------------------------------------------------------------------|
|--------------------------------------------------------------------|
|--7-/-5---5-/-4---4--2----------------------------------------------|
|--7-/-5---5-/-4---4--2----------------------------------------------|
|--5-/-3---3-/-2---2--0----------------------------------------------|

CHORUS
|--------------------------------------------------------------------|
|--------------------------------------------------------------------|
|-----5---7---------7---5--------------------------------------------|
|--5--5---7--5---5--7---5--5-----------------------------------------|
|--5--3---5--5---5--5---3--5-----------------------------------------|
|--3---------3---3---------3-----------------------------------------|
  development and support by
dmitry ivanov