rock
 
|tablatures   |lyrics   |discussion forums   |more tabs @ XGuitar.com

Judas Priest tabs

Steeler guitar tab

Judas Priest "Steeler" from BRITISH STEEL (1980)

Tabbed by Nick S.
E-mail: Pantera9560@aol.com (Use the name of the song & band for the
subj.)

Riff 1
D---9-9--9-9-9--7-7--9----9-9--9-9--7-7-7-7--
A---7-7--7-7-7--5-5--7----7-7--7-7--5-5-5-5--
E-0---------------------0--------------------

Riff 2A
D-4------7---4----7---4----7/9---
A-2------5---2----5---2----5/7---

Riff 2B
D-6------9---6----9---6----9/11---
A-4------7---4----7---4----7/9----

Riff 3A
D-4-4-4-4--7--4-4-4-4-4-4--4-4-4-4---
A-2-0-0-2--5--2-0-0-2-0-0--2-0-0-0---

Riff 3B
D-4-4-4-4-4-4-4-4-4-4-4-4--4-4-4-4---
A-2-0-0-2-0-0-2-0-0-2-0-0--2-0-0-0---

Riff 4A
D----------------------------------7---------------
A----------------------------------5-----7-----9---
E-7-7-7-7-7-7-7-7-7-7-7-7-7-7-7-7--------5-----7---

Riff 4B
G----------------------------------7---------------
D----------------------------------5-----7-----9---
A-7-7-7-7-7-7-7-7-7-7-7-7-7-7-7-7--------5-----7---

Riff 5
D--------------9-9---
A-5--5--5--5---7-7---

Riff 1 8x
Riff 2A twice
Riff 1 4x
Riff 2A twice
Riff 2B twice
Riff 3A twice
Riff 3B 4x then play B5 chord & let it ring
Riff 4A twice
Riff 4B once
Riff 4A once
Riff 1 4x
Riff 2A twice a little feedback then
Riff 5 36x (!) then play D5 chord & let it ring
  development and support by
dmitry ivanov