rock
 
|tablatures   |lyrics   |discussion forums   |more tabs @ XGuitar.com

Judas Priest tabs

Steeler bass tab

Judas Priest- Steeler
From the album British Steel

Intro/ Verse:

G--------------------------
D--------------------------
A-77777777777777777777777--
E--------------------------

Chorus 1:

G-----------------------
D-0-----0-----0------0-2
A--22222-22222-22222----
E-----------------------

Chorus 2:

G-----------------------
D-0-----0-----0------0-2
A--22222-22222-22222----
E-----------------------

G-----------------------------
D---------------------------4-
A-7-44444-7-44444-7-44444-7---
E-----------------------------

Part after the second chorus
( interlude, bridge, whatever):

G-----------------
D-----------------
A-----------------
E-777-777-777-777-

G--------------------------------------------
D--------------------------------------------
A-----------------5--------------------------
E-777-777-777-777-------5----777-777-777-777-

G------------------------------------------
D-----------------5------------------------
A-777-777-777-777------5----777-777-777-777
E------------------------------------------

After third chorus until the end
during that last guitar solo:

G---------------------------------------------
D---------------------------------------------
A-777-777-777-777-777-777-777-777-777-777-777-
E---------------------------------------------

Then as a final note play (let it ring out):

G-----
D-0---
A-----
E-----


Thats every part to the song. Listen to the song for timing
and all that stuff. Also, in the part after the second chorus
i couldn't really hear the bass very well so it could possibly
be wrong... but wutever... it works. ENJOY.
  development and support by
dmitry ivanov