rock
 
|tablatures   |lyrics   |discussion forums   |more tabs @ XGuitar.com

Judas Priest tabs

Starbreaker guitar tab

STARBREAKER
JUDAS  PRIEST
SIN AFTER SIN  1977
Transcribed by Ali Reza Pouladi
_______________________________


Hi dudes over there!
 I think this one is pretty acurate.Excuse me, I don't know how to write tabs
correctly, so you may need to lis10 to songs to get the rhythm.
The solo section was too fast for me to catch, specially K.K.'s part.I can 
only do a part of it.Let those metal gods play it themselves!!

Please send any comments to 'POULADI@EE.SHARIF.AC.IR' .


Tune down 1/2 step
6=Eb      3=Gb
5=Ab      2=Bb
4=Db      1=Eb


b:pull off
h:Hammer on
\:Slide
():ghost note

Intro
|---------------------------------|------------|-------------|
|---------------------------------|------------|-------------|
|---------------------------------|------------|--4----------|
|---------------------------------|--------2---|--4----------|
|--7--6--4---4-4-4-4-4-4-4-4-4-4-4|--7--6--2---|--2----------|
|--5--4--2---2-2-2-2-2-2-2-2-2-2-2|--5--4--0---|-------------|


|---------------------------------|------------|-------------|
|---------------------------------|------------|-------------|
|---------------------------------|------------|--6----------|
|---------------------------------|--------2---|--6----------|
|--7--6--4---4-4-4-4-4-4-4-4-4-4-4|--7--6--2---|--4----------|
|--5--4--2---2-2-2-2-2-2-2-2-2-2-2|--5--4--0---|-------------|


Chorus
|-------------|----------------|-------------|---------------|
|-------------|----------------|-------------|---------------|
|-------------|--------2-------|-------------|--4---6--------|
|--2---4------|--2--4--2--2----|--2---4------|--4---6--------|
|--2---4------|--2--4--0--2----|--2---4------|--2---4--------|
|--0---2------|--0--2-----0----|--0---2------|---------------|


Bridge
|-------------|-------------|-------------|-------------|-------------|
|-------------|-------------|-------------|-------------|-------------|
|--6----------|-------------|-------------|-------------|-------------|
|--6----------|--2-(2)-(2)--|--6-6-6-6----|-(6-6-6-6)---|--2-6--7-----|
|--4----------|--2-(2)-(2)--|--6-6-6-6----|-(6-6-6-6)---|--2-6--7-----|
|-------------|--0-(0)-(0)--|--4-4-4-4----|-(4-4-4-4)---|--0-4--5-----|
   hold                                     ghost note      mute


(Starbreaker, take my hand)
|-------------|-------------------|-------------|
|-------------|-------------------|-------------|
|-------------|------5\7----------|-------------|
|-------------|----7-----7----7---|-7-----------|
|-------------|--5---------5------|-7-----------|
|-------------|-------------------|-5-----------|
                                    pulm mute

(Starbreaker, understand)
|-------------|---------------|-------------|
|-------------|---------------|-------------|
|-------------|---------------|-------------|
|-2-----------|----2-2-2------|-7-----------|
|-2-----------|----2-2-2------|-7-----------|
|-0-----------|----0-0-0------|-5-----------|
  hold                          pulm mute

(Starbreaker, you're the one)
|-------------|-------------------|-------------|
|-------------|-------------------|-------------|
|-------------|------5\7----------|-------------|
|-------------|----7-----7----7---|-7-----------|
|-------------|--5---------5------|-7-----------|
|-------------|-------------------|-5-----------|
                                    pulm mute

(Starbreaker, lead us on)                 (and on...)
|-------------|-------------------|----------------------------|
|-------------|-------------------|----------------------------|
|-------------|------4\6----------|-----7-----9--9h11b9h11b9h11|
|-------------|----6-----6----6---|---7-----9------------------|
|-------------|--4---------4------|-5-----7--------------------|
|-------------|-------------------|----------------------------|
                                             bend

|---------------------------------|----------------------------|
|---------------------------------|----------------------------|
|14b11h14b11h14b11h14b11h14b11h14-|-and so on...---------------|
|---------------------------------|----------------------------|
|---------------------------------|----------------------------|
|---------------------------------|----------------------------|

Play intro part during the solo.
then just play intro and chrous again...


__A.R.Pouladi (The Battering Ram) Pouladi@ee.sharif.ac.ir
  development and support by
dmitry ivanov