rock
 
|tablatures   |lyrics   |discussion forums   |more tabs @ XGuitar.com

Judas Priest tabs

Solar Angels guitar tab

Judas Priest - Solar Angels
letostak@ix.netcom.com (Judy Letostak)

lyrics are at the end of the file

[A] alone with just guitar
  8x
--------------------
--------------------
--------------------
--------------------
--------------------
---0-0-0-0-0-0-0-0--

[B] play over A 2nd guitar

---------------------------------------------------------
---------------------------------------------------------
-2---4-------9----7--------2---4---9----7---7--6---6--4--
-0---2-------7----5--------0---2---7----5---5--4---4--2--
---------------------------------------------------------
--------------------------------------------------------- 

Verse 2x

---------------------------------------------------------
------3---------3---------5--------5---------------------
--2---2-----2---2---------4----2---4---------------------
--2---0-----2---0---------2----0---2---------------------
--0---------0--------------------------------------------
--------------------------------------------------------- 


Chorus 2x
                     ==========2x========     End 2
---------------------------------------------|-----------
------8---------6-----------5---10--10--8----|-----------
------7---------5----2--2---4---9---9---7----|-----------
-5----5----3----3----0--0---2---7---7---5----|----2------
-5---------3---------------------------------|----2------
-3---------1---------------------------------|----0------ 


Main Lead parts

-----------------------------------10--10--7\------------
--------12-------------------------10--10--7\------------
----11--------9b(10)--7--9--7----------------------------
-9-----------------------------9-------------------------
---------------------------------------------------------
--------------------------------------------------------- 


---------------------------------------------------------
--------12-----------------------------------------------
----11-------9b(10)--7--9--7--------7--7------4----------etc
-9----------------------------9-----7--7------4----------
---------------------------------------------------------
--------------------------------------------------------- 

end lead

-----------------15b(17)--------17b(19)------------------
--17b(19)------------------------------------------------
------------16-------------16----------------------------
---------------------------------------------------------
---------------------------------------------------------
--------------------------------------------------------- 

Verse
Chorus

Ending
 ========2x=======
---------------------------------------------------------
----------------------------3------3----3----------------
-2--2--4---9--9--7----------2------2----2---2--2---------
-0--0--2---7--7--5-------2--0---2--0----0---2--2---------
-------------------------0------0--------------0----2----
----------------------------------------------------0fade E


Solar Angels
(Tipton/Halford/Downing)

Golden halos radiating higher
Diamond visions softly breathing fire
Sky processions we are watching you arrive

Silver crystals arching beams below
What light spirals lifting up to go
Glass formations solar angels spread their wings

Spectral gliders drifting in the air
Wheels of wonder floating everywhere
Draped in rainbows gently we ascend

  development and support by
dmitry ivanov