rock
 
|tablatures   |lyrics   |discussion forums   |more tabs @ XGuitar.com

Judas Priest tabs

Saints In Hell guitar tab

Subject: Judas Priest: Saints in Hell

        ----------------------
       -++- SAINTS IN HELL -++-
        ----------------------


       Here is the my version of the main rhythm guitar for this classic.
       Sorry, no more, but I haven't got the time (nor the ability !!) just yet


e|-------------------------------------------|--------------------------------------|
B|-------------------------------------------|--------------------------------------|
G|--7h(9)---9--9----9--9----12-12-12--12--9--|--7h(9)---9--9----9--9----14--14--12--|
D|--7h(9)---9--9----9--9----12-12-12--12--9--|--7h(9)---9--9----9--9----14--14--12--|
A|--7-------7--7----7--7----10-10-10--10--7--|--7-------7--7----7--7----12--12--10--|
E|--0-------0--0----0--0---------------------|--0-------0--0----0--0----------------|
                            [-tri--]


e|-------------------------------------------|--------------------------------------|
B|-------------------------------------------|--------------------------------------|
G|--7h(9)---9--9----9--9----12-12-12--12--9--|--7h(9)---9--9----9--9----14----------|
D|--7h(9)---9--9----9--9----12-12-12--12--9--|--7h(9)---9--9----9--9----14----------|
A|--7-------7--7----7--7----10-10-10--10--7--|--7-------7--7----7--7----12----------|
E|--0-------0--0----0--0---------------------|--0-------0--0----0--0----------------|
                            [-tri--]
  development and support by
dmitry ivanov