rock
 
|tablatures   |lyrics   |discussion forums   |more tabs @ XGuitar.com

Judas Priest tabs

Rocka Rolla guitar tab

Judas Priest - Rocka Rolla
from "Rocka Rolla"
letostak@ix.netcom.com (Judy Letostak)
_____________________________________

For you Priest fans that actually KNEW this was their first
album, here's another JP classic.  Will do more from this
album (hopefully the whole thing).  And more Hagar...

Enjoy!
-Judy

Intro

---------------------------------------------------------
---------------------------------------------------------
-----2--1------2--1p0-----2--1p0--------3----------------
-----2--1------2--1p0-----2--1p0--------3----------------
--0--------0-----------0----------3--0-------------------
---------------------------------------------------------

Verse 2x
[A]
---------------------------------------------------------
---------------------------------------------------------
--2-------5--------7-----5----2--------------------------
--2-------5--------7-----5----2--------------------------
--0---------------------------0----------0---3-----------
-------------------------------------3-------------------

Verse 1x
[B]
---------------------------------------------------------
---------------------------------------------------------
---------------------------------------------------------
--2-------5-------7------5-------------------------------
--2-------5-------7------5------2------------------------
--0-----------------------------0------------------------

Verse [A] 1x

---------------------------------------------------------
---------------------------------------------------------
---------4---0-------------------------------------------
-----------------3---------------------------------------
---------------------------------------------------------
----0-----------------0----------------------------------

Chorus
2x======================
---------------------------|
---------------------------|
---------------------------|
------------5--------------|
-2----2-----3----5-----2---|
-0----0----------3-----0---|

Lead
[C]
2x======================================
---------------------------------------------------------
---------------------------------------------------------
------1~-------1~--------1--1--2p1-----1-----------------
-1h2------1h2-------1h2-------------2--------------------
---------------------------------------------------------
---------------------------------------------------------

-------------------------|-------------------------------
-------------------------|-------------------------------
------1~-------2~--0-----|--2p0----2p0-----2p0-----------
-1h2------1h2---------2--|------2-------2-------2--------
-------------------------|-------------------------------
-------------------------|-------------------------------
Play [C] 2x

---------------------------------------------------------
-----2------2-------2--2--3p2-----2--------2-------3--2--
1h2-----1h2----1h2-------------2------1h2-----1h2-------2
---------------------------------------------------------
---------------------------------------------------------
---------------------------------------------------------
[C] 2x
last time end
---------------------------------------------------------
--3--4--5~-----------------------------------------------
---------------------------------------------------------
---------------------------------------------------------
---------------------------------------------------------
---------------------------------------------------------
Intro
Verse
Chorus (fade out)


=======================================================================
h = hammeron                                       ps = pick scrape
p = pulloff                                        % = repeat phrase
~ = vibrato
letostak@ix.netcom.com
b = bend
/\ = Slide
* = Artificial Harmonic
x = ghost note
tr = trill
=======================================================================
  development and support by
dmitry ivanov