rock
 
|tablatures   |lyrics   |discussion forums   |more tabs @ XGuitar.com

Judas Priest tabs

Rock You All Around The World guitar tab

Artist:  Judas Priest
Song:    Rock you all around the World
Album:   Turbo
Tabbed by Kevin Cruz

I don't think alot of people have this album
i suggest you go get it, it's a great Album

Standard Tunning

E:---------------------|---------------------|------|
B:---------------------|---------------------|------|
G:--3\7-----7---7-7-7--|--3\7-----7---7-7-7--|--2x--|
D:--3\7-----7---7-7-7--|--3\7-----7---7-7-7--|------|
A:--3\5-5-5-5-5-5-5-5--|--3\5-5-5-5-5-5-5-5--|------|
E:---------------------|---------------------|------|

E:---------------------|---------|---------------------|---------|
B:---------------------|---------|---------------------|---------|
G:---------------------|--3-3-2--|---------------------|--3-3-2--|
D:---------------------|--3-3-3--|---------------------|--3-3-3--|
A:-------1--1------3---|---------|-------1--1------3---|---------|
E:--1--3------3--1-----|---------|--1--3------3--1-----|---------|

E:-------------------------------|-----------------------------------|------|
B:-------------------------------|-----------------------------------|------|
G:-------------------------------|-----------------------------------|------|
D:------8-----8---8-----8---8----|------8-----8---8-----8---8-10-10--|-2.5x-|
A:--6-6-6-6-6-6-6-6-6-6-6-6-6-8--|--6-6-6-6-6-6-6-6-6-6-6-6-6-8--8---|------|
E:----------------------------6--|-----------------------------------|------|

E:---------------------------------|------------------------------------15B-|
B:---------------------------------|--------------------------------12B-----|
G:---------------------------------|----------------------------------------|
D:--11-9--7------------------9--11-|-----------------10-12-13-12-10---------|
A:--9--7--5--5-5-5-5-5-5-5-5-7--9--|--10-12-13-12-10------------------------|
E:---------------------------------|----------------------------------------|

tHIS ALL I'VE FIGURED OUT.
  development and support by
dmitry ivanov