rock
 
|tablatures   |lyrics   |discussion forums   |more tabs @ XGuitar.com

Judas Priest tabs

Riding On The Wind guitar tab

Judas Priest "Riding on the Wind" from SCREAMING FOR VENGEANCE (1982)

Tabbed by Nick S. (Pantera9560@aol.com) If you E-mail me, use the
subject "Riding on the Wind" tablature. My guitar teacher helped me
out with this song. Anyway, here it is:

Riff 1A 4x

G-------7-9-7----------7-9-7-0--
D-------7-9-7----------7-9-7-0--
A-9--9---------9--9--9----------
E-7--7---------7--7--7----------
  *  *         *  *  *

Riff 2 4x

G----2-----
D-4--0--2--
A-2-----0--

Riff 1B 4x

G-------7-9-7--------7-9-7-0---
D-------7-9-7--------7-9-7-0---
A-9--9---------9--9------------
E-7--7---------7--7------------

Riff 3 once

D-9-----7--
A-7--7--5--
E----5-----

Riff 1B once
Riff 3 once
Riff 2 twice
Riff 1B 4x
Riff 3 once
Riff 1B once
Riff 3 once
Riff 2 4x

Riff 4 4x

D-4--2--0-------------
A----------4--2--0----
E------------------2--

Riff 1A 4x
Behind each lead, play riff 3 and then riff 1B. There are 4 leads, so
play it 4x.

Riff 5 3x

D-4--4*-4*-4*-4*--4--4*-4*-4*-4*-4*-4*-----------------------
A-2--2*-2*-2*-2*--2--2*-2*-2*-2*-2*-2*--2-------5-4-2-4---0--
E---------------------------------------0--0-2----------0----

after the 3rd time play

G-5--4---------
D-3--2--5--2---
A-------3--0---

Riff 2 4x
Riff 1B 4x
Riff 3 once
Riff 1B once
Riff 3 once
Riff 2 3x

then end with
G----2-----2-----2-----5--4--------2---
D-4--0--2--0--2--0--2--3--2--5--2--0---
A-2-----0-----0-----0--------3--0------
  development and support by
dmitry ivanov