rock
 
|tablatures   |lyrics   |discussion forums   |more tabs @ XGuitar.com

Judas Priest tabs

Rapid Fire guitar tab

Band:  Judas Priest
Album: British Steel
Song:  Rapid Fire

Copyright (c)  CBS Records 1980

Transcribed By: Agent-Orange

Intro
e|----------------------------------------|
b|----------------------------------------|
g|----------------------------------------|
d|----------------------------------------|
a|----------------------------------------|
E|--5-5-5-5-5-5-5-5-5-5-5-5-5-5-5-5-5-5---|

Verse Riff 1 x2
e|----------------------------------------|
b|----------------------------------------|
g|----------------------------------------|
d|----------------------------------------|
a|--3-3-3-3-3-3-3-3-3-3-3-3-3-3-3-3-3-3---|
E|----------------------------------------|

e|----------------------------------------------------|
b|----------------------------------------------------|
g|----------------------------------------------------|
d|----------------------------------------------------|
a|--7--5--7--10----7--5--7----7--5--7--10----7--5--7--|
E|--5--3--5--8-----5--3--5----5--3--5--8-----5--3--5--|

Verse Riff 2 x2
e|----------------------------------------|
b|----------------------------------------|
g|----------------------------------------|
d|----------------------------------------|
a|--5-5-5-5-5-5-5-5-5-5-5-5-5-5-5-5-5-5---|
E|----------------------------------------|

e|-----------------------------|
b|-----------------------------|
g|-----------------------------|
d|-----------------------------|
a|--7--5--7--10----7--5--7-----|
E|--5--3--5--8-----5--3--5-----|

Verse Riff 1 x2
Verse Riff 2 x2

Riff 3 x3
e|-------------------------------|------------------------------------------|
b|-------------------------------|------------------------------------------|
g|------------9--7--8------------|-----------9--------9--------9------------|
d|--9--7--9---7--7--7---9--7--9--|--9--7--9--7--7--9--7--7--9--7--7--9------|
a|--7--5--7-------------7--5--7--|--7--5--7-----5--7-----5--7-----5--7--9---|
E|-------------------------------|--------------------------------------7---|

Riff 4 x?? with lyrics
e|-----------------------------------|
b|-----------------------------------|
g|-----------------------------------|
d|-----------------------------------|
a|---7p6p5-7p6p5-7p6p5-7p6p5-7p6h7---|
E|-----------------------------------|

riff 5 x2
e|----------------------------------------------------|
b|----------------------------------------------------|
g|----------------------------------------------------|
d|----------------------------------------------------|
a|--7--5--7--10----7--5--7----7--5--7--10----7--5--7--|
E|--5--3--5--8-----5--3--5----5--3--5--8-----5--3--5--|

Verse Riff 1 x2
Verse Riff 2 x2

Outro
e|---------------------------|
b|---------------------------|
g|---------------------------|
d|---------------------------|
a|--7--5--7--10----7--5--7---|
E|--5--3--5--8-----5--3--5---|

e|--------------------------------------------------------|
b|--------------------------------------------------------|
g|--------------------------------------------------------|
d|--------------------------------------------------------|
a|---7--5--7--10--5--7--10--5--7--10--5--7--10--7--5--2---|
E|---5--3--5--8---3--5--8---3--5--8---3--5--8---3--7--0---|






End
  development and support by
dmitry ivanov