rock
 
|tablatures   |lyrics   |discussion forums   |more tabs @ XGuitar.com

Judas Priest tabs

Pantomine Horse guitar tab

JUDAS PRIEST - Pantomine Horse 
______________________________

Intro
E         A  B  A  G  A  B  A  G
(arpeggiate gently;  A = xx7655, B = xx9877, etc.  Add 2nd on top string
while picking.  See below for more detail).

E                                C
I was born as a pantomime horse,
                     D
ugly as the sun when he falls to the floor
E                                    C
I was cut from the wreckage one day,
                       D
this is what I get for being that way

A                 B      A                           G
Well, did you ever,      did you ever go round with them?
A                 B      A                          G
Well, did you ever,      did you ever go round the bend?

                A
during chorus: --------5h7p5------  move up 2 frets during B chord
               ----5h7-------7----  move down 2 frets during G chord
               -4/6---------------  (This is similar to the guitar
               -------------------   during the intro!)
               -------------------
               -------------------

E                  Esus4       C
I was conned by a circus hand
                        D
Tragic as the son of a superman
E                    Esus4            C
"I would die for the stars" she said
                            D
this is what I get for my beautiful head

Repeat Chorus, then.....
           E    D     E (hold)    C            D            E
------------------------------------------------------------7-----
------------------------------------------------------------9-----
------------------------------------------------------------9-----
------------------------------------------------------------9-----
----------------------------------3-2---3-2---7-5---7-5-6-7-7-----
-----3-2-0----------------------------3-----3-----7---------------
bend...                           ever tried it that way..(etc.)

                 A
------------------------------------
-8----------------------------------
---9-7-----------------------------
-------9-7-------------repeat, etc.   Fade....
-----------9-7----------------------
------------------------------------

  development and support by
dmitry ivanov