rock
 
|tablatures   |lyrics   |discussion forums   |more tabs @ XGuitar.com

Judas Priest tabs

Paint It Black guitar tab

JUDAS PRIEST - Paint It Black
Baptizm of fire
Transcribed by Ali Reza Pouladi
_______________________________


Hi you priest fans over there!
 How about Glenn's colorful song from his solo album?
My opinion is that this album could be much better than Jugulator
with a better vocals ;-).
The solo section was too fast for me to catch, may be I can do it
someday later...
You may need to listen to song to get the rhythm.

Please send any comments to 'POULADI@EE.SHARIF.AC.IR' .



b:pull off
h:Hammer on
\:Slide
():ghost note


Intro
|----------------|-3--------------|----------------|----------------|
|-----2---4---5--|-----5---4---2--|-2---1---2---4--|-2---1---2---1--|
|----------------|----------------|----------------|----------------|
|----------------|----------------|----------------|----------------|
|-0--------------|----------------|----------------|----------------|
|----------------|----------------|----------------|----------------|


|----------------|-3--------------|----------------|----------------|
|-----2---4---5--|-----5---4---2--|-2---1---2---4--|-2---1---2---1--|
|----------------|----------------|----------------|----------------|
|----------------|----------------|----------------|----------------|
|-0--------------|----------------|----------------|----------------|
|----------------|----------------|----------------|----------------|



Verse 1 (Play four times)
|----------------|----------------|----------------|----------------|
|----------------|----------------|----------------|----------------|
|----------------|----------------|----------------|----------------|
|--5----2--4--4--|-2--4--4---2--4-|-4---7----------|----------------|
|--5----2--4--4--|-2--4--4---2--4-|-4---7----------|----------------|
|--3----0--2--2--|-0--2--2---0--2-|-2---5----------|----------------|



Verse 2:
|----------------|----------------|----------------|----------------|
|----------------|----------------|----------------|----------------|
|----------------|----------------|----------------|----------------|
|----------------|----------------|----------------|----------------|
|-2---5---7---8--|-10--8---7---5--|-5---4---5---7--|-5---4---5---4--|
|-0---3---5---6--|-8---6---5---3--|-3---2---3---5--|-3---2---3---2--|


|----------------|----------------|----------------|----------------|
|----------------|----------------|----------------|----------------|
|----------------|----------------|----------------|----------------|
|----------------|----------------|----------------|----------------|
|-2---5---7---8--|-10--8---7---5--|-5---4---5---7--|-5---4---5---4--|
|-0---3---5---6--|-8---6---5---3--|-3---2---3---5--|-3---2---3---2--|


Solo during verse 2: (Second time)
|-12~~~----------|----------------|----------------|----------------|
|---------10~~~--|-10~-12--13--12-|-10---11---12~~-|----------------|
|----------------|----------------|----------------|----------------|
|----------------|----------------|----------------|----------------|
|----------------|----------------|----------------|----------------|
|----------------|----------------|----------------|----------------|



I see a red door ...
|----------------|----------------|----------------|----------------|
|----------------|----------------|----------------|----------------|
|----------------|----------------|----------------|----------------|
|----------------|----------------|----------------|----------------|
|-2---5---7---8--|-10--8---7---5--|-5---4---5---7--|-5---4---5---4--|
|-0---3---5---6--|-8---6---5---3--|-3---2---3---5--|-3---2---3---2--|

No colours anymore ...
|----------------|----------------|----------------|----------------|
|----------------|----------------|----------------|----------------|
|----------------|----------------|----------------|----------------|
|----------------|----------------|----------------|----------------|
|-2---5---7---8--|-10--8---7---5--|-5---4---5---7--|-5---4---5---4--|
|-0---3---5---6--|-8---6---5---3--|-3---2---3---5--|-3---2---3---2--|


I see a line of cars ...
|----------------|----------------|----------------|----------------|
|----------------|----------------|----------------|----------------|
|----------------|----------------|----------------|----------------|
|--3--5--7--5----|-7--------------|----------------|----------------|
|--3--5--7--5----|-7--------------|----------------|----------------|
|--1--3--5--3----|-5--------------|----------------|----------------|


They passed me with ...
|----------------|----------------|----------------|----------------|
|----------------|----------------|----------------|----------------|
|----------------|----------------|----------------|----------------|
|--2--3--5--7--5-|---7------------|-2---2-2-2-2-2-2|-2-2------------|
|--2--3--5--7--5-|---7------------|-2---2-2-2-2-2-2|-2-2------------|
|--0--1--3--5--3-|---5------------|-0---0-0-0-0-0-0|-0-0------------|




I look inside myself ...
|----------------|----------------|----------------|----------------|
|----------------|----------------|----------------|----------------|
|----------------|----------------|----------------|----------------|
|----------------|----------------|----------------|----------------|
|-2---5---7---8--|-10--8---7---5--|-5---4---5---7--|-5---4---5---4--|
|-0---3---5---6--|-8---6---5---3--|-3---2---3---5--|-3---2---3---2--|

I see a red door and ...
|----------------|----------------|----------------|----------------|
|----------------|----------------|----------------|----------------|
|----------------|----------------|----------------|----------------|
|----------------|----------------|----------------|----------------|
|-2---5---7---8--|-10--8---7---5--|-5---4---5---7--|-5---4---5---4--|
|-0---3---5---6--|-8---6---5---3--|-3---2---3---5--|-3---2---3---2--|


Maybe I'll fade away ...
|----------------|----------------|----------------|----------------|
|----------------|----------------|----------------|----------------|
|----------------|----------------|----------------|----------------|
|--3--5--7--5----|-7--------------|----------------|----------------|
|--3--5--7--5----|-7--------------|----------------|----------------|
|--1--3--5--3----|-5--------------|----------------|----------------|


That is not easy ...
|----------------|----------------|----------------|----------------|
|----------------|----------------|----------------|----------------|
|----------------|----------------|----------------|----------------|
|--2--3--5--7--5-|--2----2----3---|-5----7---------|----------------|
|--2--3--5--7--5-|--2----2----3---|-5----7---------|----------------|
|--0--1--3--5--3-|--0----0----1---|-3----5---------|----------------|
                    (Mute                 )


Bridge :
                                         (Paint it black)
|----------------|----------------|----------------|----------------|
|----------------|----------------|----------------|----------------|
|----------------|----------------|----------------|----------------|
|--5----2--4--4--|-2--4--4---2--4-|-4---7----------|----------------|
|--5----2--4--4--|-2--4--4---2--4-|-4---7----------|----------------|
|--3----0--2--2--|-0--2--2---0--2-|-2---5----------|----------------|


|----------------|----------------|----------------|----------------|
|----------------|----------------|----------------|----------------|
|----------------|----------------|----------------|----------------|
|----------------|----------------|----------------|----------------|
|-2---5---7---8--|-10--8---7---5--|----------------|----------------|
|-0---3---5---6--|-8---6---5---3--|----------------|----------------|

                                         (My world's black)
|----------------|----------------|----------------|----------------|
|----------------|----------------|----------------|----------------|
|----------------|----------------|----------------|----------------|
|--5----2--4--4--|-2--4--4---2--4-|-4---7----------|----------------|
|--5----2--4--4--|-2--4--4---2--4-|-4---7----------|----------------|
|--3----0--2--2--|-0--2--2---0--2-|-2---5----------|----------------|


|----------------|----------------|----------------|----------------|
|----------------|----------------|----------------|----------------|
|----------------|----------------|----------------|----------------|
|----------------|----------------|----------------|----------------|
|-2---5---7---8--|-10--8---7---5--|----------------|----------------|
|-0---3---5---6--|-8---6---5---3--|----------------|----------------|



After solo :


If we look hard ...
|----------------|-3--------------|----------------|----------------|
|-----2---4---5--|-----5---4---2--|-2---1---2---4--|-2---1---2---1--|
|----------------|----------------|----------------|----------------|
|----------------|----------------|----------------|----------------|
|-0--------------|----------------|----------------|----------------|
|----------------|----------------|----------------|----------------|

These things will ...
|----------------|-3--------------|----------------|----------------|
|-----2---4---5--|-----5---4---2--|-2---1---2---4--|-2---1---2---1--|
|----------------|----------------|----------------|----------------|
|----------------|----------------|----------------|----------------|
|-0--------------|----------------|----------------|----------------|
|----------------|----------------|----------------|----------------|



I see them walking by ...
|----------------|----------------|----------------|----------------|
|----------------|----------------|----------------|----------------|
|----------------|----------------|----------------|----------------|
|--3--5--7--5----|-7--------------|----------------|----------------|
|--3--5--7--5----|-7--------------|----------------|----------------|
|--1--3--5--3----|-5--------------|----------------|----------------|

I have to turn away ...
|----------------|----------------|----------------|----------------|
|----------------|----------------|----------------|----------------|
|----------------|----------------|----------------|----------------|
|--2--3--5--7--5-|---7------------|-2---2-2-2-2-2-2|-2-2------------|
|--2--3--5--7--5-|---7------------|-2---2-2-2-2-2-2|-2-2------------|
|--0--1--3--5--3-|---5------------|-0---0-0-0-0-0-0|-0-0------------|



At the end play this four times :
|----------------|----------------|----------------|----------------|
|----------------|----------------|----------------|----------------|
|----------------|----------------|----------------|----------------|
|----------------|----------------|----------------|----------------|
|-2---5---7---8--|-10--8---7---5--|-5---4---5---7--|-5---4---5---4--|
|-0---3---5---6--|-8---6---5---3--|-3---2---3---5--|-3---2---3---2--|
(While he sings Paint it black, My world's black, Paint it black,
 It's all black)


Then :
|----------------|----------------|----------------|----------------|
|----------------|----------------|----------------|----------------|
|----------------|----------------|----------------|----------------|
|--5----3--3--3--|3--3--3--3--3--3|-------2--------|----------------|
|--5----3--3--3--|3--3--3--3--3--3|-------2--------|----------------|
|--3----1--1--1--|1--1--1--1--1--1|-------0--------|----------------|
                                          (Palm mute)

  development and support by
dmitry ivanov