rock
 
|tablatures   |lyrics   |discussion forums   |more tabs @ XGuitar.com

Judas Priest tabs

One On One guitar tab

one on one by judas priest
from album: demolition
ENJOY!!!!

INTRO
E-----------------------
B-----------------------
G-----------------------
D-----------------------
A-7-X-X-7-X-X-X-7-7-5-8-
E-5-X-X-5-X-X-X-5-5-3-6- PLAY UNTIL CHANGE OF RYTHM


E-------------------------------
B-------------------------------
G-------------------------------
D-2-2-5-2-2-2-2-2-2-2-5-2-2-5-2-
A-2-2-5-2-2-2-2-2-2-2-5-2-2-5-2-
E-0-0-3-0-0-0-0-0-0-0-3-0-0-3-0-  FOUR TIMES

VERSE
E---------------------
B---------------------
G---------------------
D-7-5-7-X-X-X-X-X-6-8-
A-7-5-7-X-X-X-X-X-6-8-
E-5-3-5-X-X-X-X-X-4-6-

CHORUS
E----------------------------------------------
B----------------------------------------------
G----------------------------------------------
D-7-X-X-7-7-777-5-7-8-10-7-X-X-7-7-777-5-7-8-7-
A-7-X-X-7-7-777-5-7-8-10-7-X-X-7-7-777-5-7-8-7-
E-5-X-X-5-5-555-3-5-6-8--5-X-X-5-5-555-3-5-6-5-

THAT'S ABOUT ALL I KNOW OF THE SONG, BUT I'LL HAVE MORE LATER...
  development and support by
dmitry ivanov