rock
 
|tablatures   |lyrics   |discussion forums   |more tabs @ XGuitar.com

Judas Priest tabs

On The Run guitar tab

Intro

Riff 1   x1
|--8---------6h5--5--3---1---------|
|--10--10-------6-----5---3--------|
|----10----------------5---3-----2-|
|--------------------------------2-|
|--------------------------------0-|
| ---------------------------------|

Riff 2   x4
|-----------------------|
|-----------------------|
|-----------------------|
|--777--7--7--7--10-----|
|--777--7--7--7--10-----|
|--555--5--5--5--8----- |

Verse
Riff2
|-----------------------|
|-----------------------|
|-----------------------|
|--777--7--7--7--10-----|
|--777--7--7--7--10-----|
|--555--5--5--5--8------|

Riff 3
|----------------------------------------------------------------------------------------|
|----------------------------------------------------------------------------------------|
|-7--5-----------------------------------------------------------------------------------|
|-7--5--777--7--7--7--10--5--7--7---7--7--5--7------2-5-7--7-5-7-----2--5-7--------------|
|-5--3--777--7--7--7--10--3--5--7---7--5--3--7----0--5--7--5-3-7----0--5--7--------------|
|-------555--5--5--5--8---------5---5--------5---2--3---5------5---2--3---5--------------|

Riff 4
|-----------------6h5-5-8h5-8h10h8-8h5---------|
|----------------------------------------------|
|-2-3/5-75747----------------------------------|
|----------------------------------------------|
|----------------------------------------------|
|----------------------------------------------|

Riff 5 x1
|-------------------------5--|
|--------------------------- |
|-4b--2----------------------|
|--------4-3-2---------------|
|----------------4-3-2-0-----|
|----------------------------|



Guitar 2 plays this in the background of riff’s 4 & 5

|-----------------------|
|-----------------------|
|-----------------------|
|--777--7--7--7--10-----|
|--777--7--7--7--10-----|
|--555--5--5--5--8----- |

I haven’t figured out the solo but during solo’s I usually comp.

Order:

Intro
Riff 2 x 8
Riff 3 x 1
Riff 2 x 2
Riff 4 x 1
Riff 3 x 3
Riff 5 x 1
Riff 3 x 1
Riff 2 x 8
Riff 3 x 1
  development and support by
dmitry ivanov