rock
 
|tablatures   |lyrics   |discussion forums   |more tabs @ XGuitar.com

Judas Priest tabs

Metal Gods guitar tab

Metal Gods
Judas Priest - British Steel
By Jerry Moffett (jmoffett@promus.com)
_____________________________________



                     Verse riff                                         
E-----------------------------------------------------------------------
B-----------------------------------------------------------------------
G---7-9-----9--9--9--7--7-9-----9--9--9----7-9-----9--9--9--7--7-9------
D---7/9-----9--9--9--7--7/9-----9--9--9\---7/9-----9--9--9--7--7/9------
A---5-7--x--7--7--7--5--5-7--x--7--7--7----5-7--x--7--7--7--5--5-7------
E-----------------------------------------------------------------------
                                                                        

           2x           ChorusPalm Mute (PM)         PM                 
E------r---||-----------------------------------------------------------
B------e---||-----------------------------------------------------------
G---9--s--*||-----------------------------------------------------------
D---9--t--*||--2--2--4--4-----------------2h4---------------------------
A---7------||--2--2--4--4-----------------2-4---------------------------
E----------||--0--0--2--2--2--2--2--2--2--0-2--2--2--2--2--2--2--2------
                                                                        

               PM                 PM               PM
E------------------------|----------------------------------------------
B------------------------|----------------------------------------------
G--------------------4---|----------------------------------------------
D---2h4--------------4^--|----------------2h4-----------------2h4-------
A---2-4--------------2---|----------------2-4-----------------2-4-------
E---0-2--2--2--2--0------|--0h2--2--2--2--0-2--2--2--2--2--2--0-2--2----
                                                                        

                 2x        Met - al Gods      2x    Solo rhythm(PM 2's)
                   
E----------------||---------------------------||------------------------
B----------------||-----------------------3---||------------------------
G---------------*||--------7--------------2--*||------------------------
D------4--2--2--*||--5-----7-----5--------0--*||--2h4--------4----------
A------4--2--2---||--5-----5-----5--3--5--0---||--2-4--------4----------
E---2--2--0--0---||--3--5--------3--------0---||--0-2--2--2--2--2-------
                                                                        

    PM       PM                     Solo starts like this...
                   
E----------------------||-----------------------------------------------
B----------------------||-----------------------------------------------
G---------------------*||---4^----~~~(4)-2-1~~--2-----------2h4p2-2h4^--
D------4--------4--2--*||-------------------------4-----2h4------4------
A------4--------4--2---||---------------------------2h4-----------------
E---2--2--2--2--2--0---||-----------------------------------------------
                                                                        



========================================================================
==                       TABLATURE EXPLANATION                        ==
========================================================================

----------                ----------                ----t---
----5h8--- Hammeron       ----(8)--- Ghost          ----6--- Tap
----------                ---------- Note           --------
----5p8--- Pulloff        ----------                --------

----------                ----------                -----p--
----5/8--- Slide Up       -----x---- Dead           -----7-- Pop
----------                ---------- Note           --s-----
----5\8--- Slide Down     ----------                --5----- Slap 

----------                ||------|| Repeat         --------
----5~~~-- Vibrato        ||*----*||                ---5^--- Bend
----------                ||*----*||                --------
----------                ||------||                --------

----------                ----------                --------
-4:------- Time           ----------                --------
-4:------- Signature      ----------                --------
----------                ----------                --------

Rhythm:
  w = whole note            W = dotted whole
  h = half note             H = dotted half
  q = quarter note          Q = dotted quarter
  e = eighth note           E = dotted eighth
  s = sixteenth note        S = dotted sixteenth
  t = 32nd note             T = dotted 32nd
  x = 64th note             X = dotted 64th
  ^ = triplet
  development and support by
dmitry ivanov